Guitar Tabs, Chords and Lyrics


Saturation  John Frusciante

-=-=-=-=-=-=-=-=-=-=-=-=-=-=-=-=-=-=-



-=-=-=-=-=-=-=-=-=-=-=-=-=-=-=-=-=-=-

-=-=-=-=-=-=-=-=-=-=-=-=-=-=-=-=-=-=-
   [Dm]                                                                                 
E|----------1------1-|
B|-----3------3------|
G|---2----------2----|
D|-0-----0-----------|
A|-------------------|
e|-------------------|  X 2

[Dm]I feel that wheels are turning '[C]ro[Bb]und[Dm]
[Dm]Replay[C]  [Bb]   [Dm]
[C]We made [Bb]you
[Dm]We made y[C]ou
[C]We made yo[Bb]u
[Dm]what you w[C]ere
[Dm]We brought them up that hill
[Dm]We brought them up to roll them [C]do[Bb]wn [Dm]
[Dm]down[C]  [Bb]   [Dm]
[F]In the mornin[C]g, li[Gm]ght might clean[Dm] you
[F]In the mornin[C]g, li[Gm]ght might clean you [F]out  [C]  [Gm]   [Dm]   [F]  [C]  [Bb]   [C]
[Dm]I'm sad that time escapes me
[Dm]It pushes ahead of me all [C]day[Bb]   [Dm]
[C]Remind m[Bb]e
Chords:

    [Dm]      [C]     [Bb]       [F]     [Gm]                                                         
E|--1--|--0--|--1--|--1--|--3--|
B|--3--|--1--|--3--|--1--|--3--|
G|--2--|--0--|--3--|--2--|--3--|
D|--0--|--2--|--3--|--3--|--5--|
A|--X--|--3--|--1--|--3--|--5--|
e|--X--|--X--|--X--|--1--|--3--|
-=-=-=-=-=-=-=-=-=-=-=-=-=--=-=-=-=-=--=-=-=-=-=-=-=-=-=-=-=-=-=--=-=-=-=-=--

Produce By John Frusciante
Mixed By Jimmy Boyled
Mixing Assisted By Brian Grimmel
Mastered By Vlado Meller At Sony Music Studio, New York.
-=-=-=-=-=-=-=-=-=-=-=-=-=--=-=-=-=-=--=-=-=-=-=-=-=-=-=-=-=-=-=--=-=-=-=-=--

Important: The song above is NOT stored on the Chordie server. The original song is hosted at www.guitaretab.com. Chordie works as a search engine and provides on-the-fly formatting. Chordie does not index songs against artists'/composers' will. To remove this song please click here.

Text color:
Chord color:
Chord grids: 
Font size:    
Page size: 

Bb C Dm F Gm
variations - click chord images

Login - add to songbook

Transpose chords

Tuning

Rating click stars to rate

Layout
Accuracy

SHARE PAGE  




You need to log in to post comments