Guitar Tabs, Chords and Lyrics


This Cold  John Frusciante

[F]   [133211]                                  
C -32010

G 320033

G7 320001

Dm --0231

Intro:
Am F C G x2

Guitar 2:(comes in around second measure)
[Am]                  [F]                 [C]           [G]                                                  
---------------------------------------15~------------------|
-----------------------------------17~-----17~-------17~----|
14~--------16-17-------------------------------16h17-----17-|
------------------15~---------------------------------------|
------------------------------------------------------------|
------------------------------------------------------------|


[Am]                  [F]                 [C]         [G]                                                    
-----------------------------------------------------|
-----------------------------------------------------|
14~--------16-17-------------------------------------|
------------------15~--------------14~---------------|
--------------------------------------------15~------|
-----------------------------------------------------|


Verse 1:
[Am]I don't need a [F]ride to arrive   [C]        [G]

[Am]I don't feel a[F]pproached any time   [C]        [G7]

Chorus 1:
[Dm]If you feel a [Am]fader on a de[C]cline    [G7]

[Dm]Out of all you've [Am]ever been and you [C]won't need time you [G7]never need time

Verse 2:
[Am]I don't need this [F]every God   [C]       [G]

[Am]You see every [F]ghost am I   [C]        [G7]

Chorus 2:
[Dm]Have we found a [Am]phase to be out [C]of      [G7]

[Dm]Transfer all your [Am]thoughts to me and you [C]won't need love [G7]we don't need love

Verse 3:
[Am]I don't need this [F]sin to go      [C]        [G]

[Am]Down to where all for[F]evers flow   [C]        [G7]

Guitar 2:
-----------------------------------|
-----------------------------------|
-----------------------------------|
-----------------------------------|
12~------8~---------------10~------|
-----------------8~----------------|
----------------------------------|
----------------------------------|
----------------------------------|
----------------------------------|
12~------8~-----------------------|
-----------------8~---------------|


Chorus 3:
[Dm]Every faith re[Am]alized is revealed [C]slow       [G7]

[Dm]Never talking [AM]back to me say [C]it out loud I [G7]feel this cold

Outro:
[F]I f[G]eel this cold[Am]

I [F]never stay I [G]never go  [Am]

[F]I fe[G]el this cold[Am]
I [F]never stay and I [G]never go [Am]   ahhh!
Guitar 2
---------------------------------|
10~--8~-10~-----5~---------------|
---------------------------------|
---------------------------------|
---------------------------------|
---------------------------------|
---------------------------------|
10~--8~-10~-----5~---------------|
---------------------------------|
---------------------------------|
---------------------------------|
---------------------------------|
---------------------------3-------|
10~--8~-10~-----5~----5b-----5rb---|
-----------------------------------|
-----------------------------------|
-----------------------------------|
-----------------------------------|
---------------------------------------------|
---5~----------------------------------------|
5~----5~---4b5~------------------------------|
---------------------------------------------|
---------------------------------------------|
---------------------------------------------|				


Important: The song above is NOT stored on the Chordie server. The original song is hosted at www.guitaretab.com. Chordie works as a search engine and provides on-the-fly formatting. Chordie does not index songs against artists'/composers' will. To remove this song please click here.

Text color:
Chord color:
Chord grids: 
Font size:    
Page size: 

Am Am C Dm F G G7
variations - click chord images

Login - add to songbook

Transpose chords

Tuning

Rating click stars to rate

Layout
Accuracy

SHARE PAGE  




You need to log in to post comments