Guitar Tabs, Chords and Lyrics


Shadows Collide With People  John Frusciante

[Bm]   [A]  [G]                                
Verse

[Bm]   [A]  [G]                                
Chorus

|------------------------------------|
|-7--5--5--3--(5)--------------------|
|-7--6--6--4--(6)--------------------|
|-7--7--7--5--(7)--------------------|
|-5--7--4--5--(7)--------------------|
|----5-----3--(5)--------------------|


() Play only first time


Bridge (Sending a dummy)

[A]  [G]                                   
Interlude 2nd time

|----------------------------|-----|
|-------7-------7------10-12-|-----|
|---7-9-----7-9---9--7-------|-(4b)|
|-9-------9------------------|-----|
|----------------------------|-----|
|----------------------------|-----|


Have you gone....

[Bm]   [D]  [A]  [G]                              
***Omission***


Intro and Verse

[C]        [G7]        [Am]        [Fadd9]             
Chorus

"Never Now We Need The Other"

Just strum this the way you here it

|--5--------|
|--5--------|
|--5--------|
|--7--------|
|--8--------|
|-----------|


Interlude 1

|-12--10--12------12--15--12----|
|-------------------------------|
|-------------------------------|
|-------------------------------|
|-------------------------------|
|-------------------------------|


Interlude 2

Pick fast

|-15--20-19-15--15--20-19-17----|
|-------------------------------|
|-------------------------------|
|-------------------------------|
|-------------------------------|
|-------------------------------|


Interlude 3

|-12-15-17-12--12-15-17-12--17b-|
|-------------------------------|
|-------------------------------|
|-------------------------------|
|-------------------------------|
|-------------------------------|
|-12-15-17-12-13-12----15--12-12|
|-------------------13----------|
|-------------------------------|
|-------------------------------|
|-------------------------------|
|-------------------------------|


***Regret***
Standard Tuning
Into

|----------------------------------|
|---------1---------------1--------|
|-------0---0-----------0---0------|
|-----2-------2-------2-------2----|
|-3-3-----------3-3-3-----------3--|
|----------------------------------|
|------------------------------0---|
|---------1--------------1---------|
|-------0---0----------0---0-------|
|-----2-------2------2-------2-----|
|-3-3-----------3-3-3--------------|
|----------------------------------|
|---------0---------------0--------|
|-------1---1-----------1---1------|
|-----2---------------0------------| x 2
|---2---------------2--------------|
|-0-----------0-2-3-----------3-2--|
|----------------------------------|
|----------------------------------|
|-------3----------------1---------|
|----------------------2---2-------|
|-----5---5----------3-------3-----|
|---5-------5------------------3---|
|-3-----------3-2-1--------------1-|
|-----0-------0-------0----0---3---|
|-----1-------1-------1----1---0---|
|-----2-------2-------2----2---0---|
|-----2-------2-------2----2---0---|
|-0-0-0---0-0-0---0-0-0--0-0-2-2---|
|----------------------------------|


Verse


[C]I... Reg[G]ret... My[Am] Past
[F]Stay Alone
[C]     [G]Stay Alone
***Ricky***


Tuned down half-step

    [C/B]      [Am/G]                                                            
eb---0-----0---
Bb---1-----1---
Gb---0-----2---
Db---x-----2---
Ab---2-----x---
Eb---x-----3---


[C]I was af[C/B]raid to be m[Am]e     [Am/G]
[F]Be anyone you [G]want to be
[F]Be anyone you [G]want to be
[C]I dont [C/B]blame my wea[Am]k    [Am/G]
For my[F] not being [G]able to speak
[F]Clearly ab[G]out things Ive said bef[C]ore [C]
And if its [Em]light outs[F]ide night will [C]fall night will [G]fall
And if its[Em] life[F] it re[C]solves it [G]res[F]olv[Em]es  [F]
[C]  [G]  [Dm]   [F]                              
[C]Anywhere you a[G]re in [Dm]a maze i[F]s a [C]li[G]e [Dm]   [F]
[C]Anywhere you [G]are on a [Dm]page you [F]still go to the [C]ri[G]gh[Dm]t  [F]
[C]Anytime theres [G]no ground bel[Dm]ow you you're [F]in the [C]sk[G]y [Dm]   [F]
[C]Anytime you[G]re afra[Dm]id its g[F]onna be alright
[C]Its g[G]onna be[Dm] alri[Dm]ght
[C]I was a [C/B]flame in the n[Am]ight  [Am/G]
[F]I heard what i [G]wanted to hear
[F]And the moment I [G]disappeared
[C]I grew the [C/B]size of all outsi[Am]de    [Am/G]
Cuz [F]I became one [G]with the night
[F]I became one w[G]ith the nigh[C]t   [C]
And if its[Em] rea[F]l its not [C]all its not [G]all there[G] is
Theres a[Em] lot[F] in wh[C]at appe[G]ars not to [F]be there a[Em]t al[F]l  [C]  [C]
And y[C]ou can f[Am]unction as s[F]omeone b[G]esides who you [C]ar[C]e [G]  [F]
And y[C]ou can f[Am]unction as s[F]omeone b[G]esides who you [C]ar[C]e [G]  [F]
And y[C]ou can f[Am]unction as s[F]omeone b[G]esides who you [C]ar[C]e [G]  [F]
And y[C]ou can f[Am]unction as s[F]omeone b[G]esides who you [Am]are
***Second Walk***


S.T.

only progression:


A x 0 2 2 2 x
E 0 2 2 1 0 0
[F#m]    [2]  [4]  [4]  [2]  [2]  [2]                       
1st lead simply a C# note

2nd lead
e--------------  ---------- ---------------
b-17h19--19-19-  -19p17---- --------17-----
g--------------  -------18- -16b-------16b-
d--------------  ---------- ---------------
a--------------  ---------- ---------------
e--------------  ---------- ---------------


synth during vocals

[A]  [G#]   [F#]   [E]  [F#]   [E]  [C#]   [E]  [F#]   [E]  [F#]   [G#]   [F#]   [E]  [C#] [E] 
3rd Lead

(imporant licks)
w
e----------- --------------------
b----------- ------------17------
g-(16b)-r16- -13b14r13-----------
d----------- ----------------16--
a----------- --------------------
e----------- --------------------


***Every Person***
S.T.

[G#m]you take me by the hand
A hand's all I feel ri[Ebm]ght now        [G#m]
It's all I am   [Ebm]
It's al[G#m]l that I am
You think that I'm a man
I beg to d[Ebm]iffer[G#m]
For I am her as[E#m] much as I'm me            [G#m]
[C#m]You know this moment in time
Is all my life   [F#]        [B]    [F#]     [B]
[C#m]Every day is each day that's past
[F#]Every [B]perso[F#]n alive[B] is eve[E]ryone wh[B]o's di[E]ed   [Ebm]      [G#m]
ah....)
[G#m]A ship out in the distance
Is here if I [Ebm]draw it [G#M]
Multiply time by[Ebm] lett[G#m]ing it go by
You paint a star
You give many years ago [Ebm]         [G#m]
New life and it appr[Ebm]ecia[G#m]tes it
[C#m]You know this moment in time
Is all my life[F#]    [B]   [F#]    [B]
[C#m]Every day is each day that's past
[F#]Ever[B]y p[F#]erso[B]n al[E]ive[B] is[Ebm] ever[G#m]yone who's died


***Wednesday's Song***
S.T.

Cm 8 x 10 8 8 x
Fmadd6 x 8 12 10 9 x
Bb7add2 6 x 8 7 9(8) c added in verse only
F-7sus2 x 8 10 8 8 x
Ab 4 6 6 5 4 x
Eb x 6 8 8 8 x
Fm x 8 10 10 9(8) c added in 2nd chorus
Cm/G x 10 10 8 8 x
Db x 4 6 6 6 x
F x 8 7 5 6 x
Bbm 6 x 8 6 6 x


[Cm]    [Fmadd6]        [Bb7add2]         [Cm]    [F-7sus2]            
[Cm]You'll make it [Fm]through the day
Bb7add2 Cm F-7sus2 (with c)
See things another way and behold


[Ab]Listen to[Eb] Wednesday's[Fm] song
[Ab]This nigh[Eb]t you go hom[Fm]e alone
[B7]How the sane go [Cm]upright
[Cm/G]How you look an[Fmsus2]other night
You're back under my hat
And even knowing that you're a whore

Nothing ever meant more
Than switching rooms through a door
Out into another one
Frames flash inward
And you know...

Db Ab Eb F (arp)
You know, I have seen the world enough

Db Ab Eb F (arp)
I've drowned my thoughts a lot

Db Ab Eb F(arp) Db
Deep in rains that swirl above

Db Ab Eb Fm/Fsus2 (no root)
I canceled heaven I concede


(pickup notes are Eb Bb B back into verse)

Another word to say
When everythings ok you down
And pulling up the slack
And never coming back
An alarm

Ringing to set the sun
No one ever becomes

What others thought they should've been
Inside they're what they can see

You know I do miss this girl
To show I am in a swirl of sun
Being what I've got
The joy

[Db]I canceled [Ab]heaven [Eb]I conce[Bbm]de

[Db]Everything [Ab]that I [Eb]believe[Bbm]
Db Ab Eb Fm/Fsus2 (no root)
I canceled heaven I concede

***This Cold***


Intro

[Am]        [F]        [C]        [G]             

|---------------12-15-----------------------|
|-10--12-13-----------15---10-12-13---------|
|------------9-----------------------9-----|
|---------------------------------------10--|
|-------------------------------------------|
|-------------------------------------------|


Pre-Chorus

[Dm]        [Am]        [C]        [G]             
Chorus

"I Feel THis Cold"

[F]        [G]        [Am]                     
***Song to Sing When Im Lonely***


S.T.

Intro :
B Ebm C# G#m (arpeggio)

Verse :
Same as intro (no arpeggio) x2

Chorus : "I'll be you I do ...;
F# C# G#m x2

then : Arpeggio with strung e B and G F# C# G#m x1

then : G#m F# C#
[F#]F# [G#m]G#m [B]x4


End :

Arpeggio F# C# G#m
On strung e B G


F# : C#: (important to play this way for arpeggio)

e- 2 9
[B-2]G-3 [9]10
[E-2]    [9]                                 


G#m : B: Ebm:

[4]4 [4]4 [7]8
6 4 8
[6]4 [2]x [6]x


***Time Goes Back***


[G]  [-]  [D]  [Dsus4]      [-]  [Am]   [-]  [C]                  
verse

[G]  [-]  [Em]   [-]  [C]  [-]  [Em]                        
chorus

[Am]   [-]  [C]                                
Otra Verses

[G]  [-]  [D]  [Dsus4]      [-]  [C]  [-]  [C]                   

For the bridge arpeggiate chords


***In Relief***


T[G]o seem you're [F]in me and [C]over me
[E]Relief [Am]in all things
[F]And all things shoo[Em]t through me
[D]And all things shoo[C]t through you
[Em]Wherever you are
(repeat)

To seem you're a dream when you never stop
And we ask you what you are
Belief as one with what you[G] believe in

[F]Travel slowly

[Em]Move in [Am]circles
[Em]You know time gro[Am]ws old in reverse
[Em]                                     
[Em]Life as a thing that began
[Am]And was [Em]magnified
[Am]And made the fist [Em]fire and the last one
(repeat)

To mean everything you never say
Every single thing going every way
When you leasder's gone
He means to make you strong
He never went away
Cuz what you need you are

[Em]   [-]  [Am]   [-]  [Em]   [-]  [Am]   [-]  [G]                 
***Water***


intro is simply sounds/synthesizers... like fennesz

E x 7 6 4 5 4
B 7 9 9 8 7 7
[E]                                     
Riff
e---4---4-4----------------------
b---4---4-4----------------------
g---4---4-4---------4---6--------
d--------------------------------
a--------------------------------
e----------------6---------------


for verse fill

E x 7 9 9 9 7

Outro chords

C# x 4 6 6 5 x
E 0 2 2 1 0 0
B x 2 4 4 4 x
A x 0 2 2 2 x

solo isnt anythin special (key of E if you didnt know)


***Cut Out***


Bm,A
Bm,A,E

F#m,A,E

[E]repeat all and when you arrive at F#m,A,E the final is Bm,A.

end on Em

***Chances***


Version 1 :

[D#m]This is t[G#]he time[C#] to die [F#]
[D#m]I'm not s[G#]omeone [C#]on whom [F#]to rely
[D#m]Chances c[G#]ome and[C#] chances[A#m] go
[F#]This[G#] is [C#]letting go
I [A#m]feel [F#G#]the tightening of the dawn
Th[A#m]e cre[F#]ation of [G#]something I've sung
No[A#] on[m]e goes back 'ca[F#]use they're all ther[G#]e
[F#]Are [G#]you [C#]everywhere
Be[A#m]comin[F#]g who you[G#] think you are
[A#m]In or[F#]der[G#] to do your part
[A#]In t[m]he multi-dime[F#]nsional scheme      [G#]
[F#]You'[G#m]ll kn[C#]ow what I mean
[D#m]This is t[G#]he time[C#] to die [F#]
[D#m]I'm not s[G#]omeone [C#]on whom [F#]to rely
[D#m]Chances c[G#]ome and[C#] chances[A#m] go
[F#]This[G#] is [C#]letting you know
[A#m]I'm a[F#]lmo[G#]st where I'll never be
[A#m]This [F#]cut[G#]ting off of fare like a string
[A#m]A lin[F#]e t[G#]hat falls to the floor
[F#]And I[G#m]'m no[C#]t me anymore

***23 go in to end***


Fm,Cm,Eb,Bb


***The Slaughter***


Version 1 :

Tabbed by Rondo

INTRO:

The Song starts with a simple E

CHORUS 1:

[E]  [-]  [Ab]   [-]  [A]  [-]  [A#dim7]                        
[C#m]    [-]  [A]                               
VERSE:

[E]  [-]  [Cdim7]      [-]  [C#m]    [-]  [B]  [-]  [Amaj7]               
CHORUS 2:

[C#m]    [-]  [B]  [-]  [A]  [-]  [Amaj7]                       
VERSE
CHORUS 1

OUTRO:

C#m - B - A - A/F7(something like that)
[C#m]End [-]on[B] A[-]ma[A]j7[-]  [Amaj7]

Intro
Chorus 1
Verse
Chorus 2
Verse
Chorus 1
Outro

Chords:

[A#dim7-Cdim7-F#m6-Am6/F#-A/F7]  |     |     |     |     |
e-x-----x-----x-----x-----x
B-2-----4-----2-----1-----10
G-0-----2-----2-----2-----8
D-2-----4-----1-----1-----10
A-1-----3-----x-----x-----0
E-x-----x-----2-----2-----x


WELL THERE YOU GO
TOTAL WRITING+MAKING UP TIME+19.5 HORS

THANK YOU FOR SUPPORTING JF