Guitar Tabs, Chords and Lyrics


A Doubt  John Frusciante

----------------------------------------------------------------------------



----------------------------------------------------------------------------

------
----------------
----------------
e|-5--5--5--5--5--5--5--5--5--5-----|
B|--6--6--6--6--6--6--6--6--6--6----|
G|---7--7--7--7--7--7--7--7--7--7---|
D|----------------------------------|
A|----------------------------------|
E|----------------------------------|
[A#]   [C]  [Dm]Everyone speaks at the same time
[A#]   [C]  [Dm]Everyone wonders, "who am I?"
[A#]   [C]  [F]It'd be sa[C]d to blow t[A]hrough time
[A#]   [C]  [Dm]We never go th[C]rough the[A#] sk[A#add9]y
[A#]   [C]  [Dm]We never know [C]when to d[A#]ie [A#add9]
[A#]   [C]  [Dm]Lean in to [F]wa[C]aa[G]alk[Dm]
     We dreamed up to[A#]nii[C]ii[G]ight [Dm]
     Lean in to [F]wa[C]aa[G]alk[Dm]
     We dreamed up to[A#]nii[C]ii[G]ght [Dm]
     We dreamed up to[A#]nii[C]ii[G]iiii[Dm]iiii[C]iigh[A#6]t
[A#]   [C]  [Dm]We all choose to live life
[A#]   [C]  [Dm]We confuse how with why
[A#]   [C]  [F]Everyday is [C]lost as it goes [A]by
[A#]   [C]  [Dm]These moments [C]don't com[A#]put[A#add9]e
[A#]   [C]  [Dm]And I wind up [C]next to y[A#]ou [A#add9]
[A#]   [C]  [Dm]And a[F]ll that I n[C]eed is[Gm] a d[Dm]oubt  [A#]   [C]
     [Dm]That's [F]all one that f[C]eeds [Gm]the m[Dm]outh [Dsus2]      [D]  [Dsus2]
     [A#]One simple [Dm]means is to [C]leave it by the [Dm]door
     [Gm]Oh [F]ohh [C]oh [Dm]ohh [C]oh [A#]ohh[A#add9] ...
     [A#]One time to[Dm] play is the[C] time you play f[Dm]or
     [Gm]Oh [F]ohh [C]oh [Dm]ohh [C]oh [A#]ohh[A#add9] ...
     [A#add9]And you never set a limit
Solo (while playing chords: Dm F C G Dm A# C G)

     [Dm]Lean in to [F]wa[C]aa[G]alk[Dm]

     There's nothing missing from l[A#]iii[C]if[G]e    [Dm]
     Lean in to [F]wa[C]aa[G]alk[Dm]
     nothing missing from l[A#]iii[C]if[G]e     [Dm]
     nothing missing from l[A#]iii[C]ii[G]iiiiii[Dm]iiif[C]e   [A#6]
     [Dm]Lean in to [F]wa[C]aa[G]alk[Dm]
     nothing missing from l[A#]iii[C]if[G]e     [Dm]
     Lean in to [F]wa[C]aa[G]alk[Dm]
     We dreamed up to[A#]nii[C]ii[G]ght [Dm]
     We dreamed up to[A#]nii[C]ii[G]iiii[Dm]iiii[C]ght [A#6]
A#6 Dm \
Don't ever set a limit


Solo (tabbed by Juan Manuel Trujillo Sevilla): Lots of feedback
e|---------------------------------------------------------18~~~~----------|
B|-10----10----10----- repeat several  --15----15----15--------------------|
G|-12(14)12(14)12(14)-  times    --------17(19)17(19)17(19)--------19+-----|
D|-------------------------------------------------------------------------|
A|-------------------------------------------------------------------------|
E|-------------------------------------------------------------------------|


| ~ vibrato
| + harmonic

Important: The song above is NOT stored on the Chordie server. The original song is hosted at www.guitaretab.com. Chordie works as a search engine and provides on-the-fly formatting. Chordie does not index songs against artists'/composers' will. To remove this song please click here.

Text color:
Chord color:
Chord grids: 
Font size:    
Page size: 

A A# A#6 A#add9 C D Dm Dsus2 F G Gm
variations - click chord images

Login - add to songbook

Transpose chords

Tuning

Rating click stars to rate

Layout
Accuracy

SHARE PAGE  




You need to log in to post comments