Guitar Tabs, Chords and Lyrics


Past Recedes   John Frusciante



This is the most correct version so far

Legend:
	h – hamer on
	p – pull of
	s – slide
	b – bend
	r - release

E |--10---8h10p8s7---7h8p7s5---------|--7--------------------------|
B |---------------------------8—7—8--|----10-8-7-8----7-5-3--------|
G |----------------------------------|-----------------------------|
D |----------------------------------|-----------------------------|
A |----------------------------------|-----------------------------|
E |----------------------------------|-----------------------------|


E |---------------------------|---------------------------------3--|
B |–3h5p3p0--0---0------------|----------------------3—1h3p1p0-----|
G |------------2---2—0h2p0--0-|--0------------0-4-0----------------|
D |---------------------------|----4-2-0-2-4-----------------------|
A |---------------------------|------------------------------------|
E |---------------------------|------------------------------------|


E |--7—-5h7p5s3--3---10-10---12--12--12--12---14--14---14----------|
B |--------------------------15b-15b-15b-15b—-17b-17b—17b----------|
G |----------------------------------------------------------------|
D |----------------------------------------------------------------|
A |----------------------------------------------------------------|
E |----------------------------------------------------------------|


E |--11---11------11-----12----------------------------------------|
B |--12—--12b(r)--12-----------------------------------------------|
G |----------------------------------------------------------------|
D |----------------------------------------------------------------|
A |----------------------------------------------------------------|


Important: The song above is NOT stored on the Chordie server. The original song is hosted at www.guitaretab.com. Chordie works as a search engine and provides on-the-fly formatting. Chordie does not index songs against artists'/composers' will. To remove this song please click here.

This song is displayed as text-only. Transposing and tuning is only available for chordpro-songs.

Login - add to songbook

Rating click stars to rate

Layout
Accuracy

SHARE PAGE  




You need to log in to post comments