Chordie logo


Lever Pulled   John Frusciante



e-----------------------------------------|
B-----9----9------6------9----9-----6-----|
G-----10---10-----6------10---10----6-5-5-|
D---10---10-----6-6----10---10-----66-6-6-|
A-8------8----4------8------8----4----6-6-|
E-------------------------------------4-4-|

e-------------1-1---------------8-|
B---6----xxx4-1-1----6----x-6-x-8-|
G---6--6-6666-1-1----6--6-6-6-8-8-|
D------6-6666-3-3-------6-6-6-8-8-|
A-8--8-8-4444-3-3--8--8-8-4-4-6-6-|
E-6--6--------1-1--6--6-----------|

e---------------------------------------------|
B-----9----9------6---------9----9------6-----|
G-----10---10-----6--6------10---10-----6-5-5-|
D---10---10-----6-6--6----10---10-----6-6-6-6-|
A-8------8----4-----4---8------8----4-----6-6-|
E-----------------------------------------4-4-|

e-------------1-1-----------------|
B---6----x444-1-1----6----x-6-x-8-|
G---6--6-6666-1-1----6--6-6-6-8-8-|
D------6-6666-3-3-------6-6-6-8-8-|
A-8--8-8-4444-3-3--8--8-8-4-4-6-6-|
E-6--6--------1-1--6--6-----------|

e------------------------11--11---------|
B-----9----9----6---8----9---9----6---8-|
G-----10---10-6-6-8-8----8---8--6-6-8-8-|
D---10---10---6-6-8-8-10-----10-6-6-8-8-|
A-8------8----444-666-8-----8---444-666-|
E---------------------------------------|

e--------------1-1-----------------|
B-----6-----66-1-1-----6-----6---8-|
G-----6-6-6-66-1-1-----6-6-6-6-8-8-|
D-8-----8-6-66-3-3-8-----8-6-6-8-8-|
A-8-------4444-3-3-8-------444-666-|
E-6-6--6-------1-1-6-6--6----------|

e----------------------------------|
B-9-x9--9--6x6-6--9-x9--9--6x6-4-4x|
G-10x10-10-6x6-6--10x10-10-6x6-5-5x|
D-10x10-10-6x6-6--10x10-10-6x6-6-6x|
A-8-x8-88--4x444--8-x8-88--4x4-6-6x|
E------------------------------4-4x|

e------------1-1x-----------------|
B---6-6-6666x1-1x---6-6-6666x8888-|
G-6x6-6-6666x1-1x-6x6-6-6666x8888-|
D-8x8-8-6666x3-3x-8x8-8-6666x8888-|
A-8x888-4444x3-3x-8x888-4444x6666-|
E-6x666------1-1x-6x666-----------|

e------------------------11-------------|
B-----9----9----6---8----9---9----6---8-|
G-----10---10-6-6-8-8----8---8--6-6-8-8-|
D---10---10---6-6-8-8-10-----10-6-6-8-8-|
A-8------8----444-666-8-----8---444-666-|
E---------------------------------------|

e--------------1-1-------------------11-|
B----9-6-----6-1-1------------6---8--9--|
G-6--6-6----66-1-1--6--6-6--6-6-8-8--8--|
D-8-------6-66-3-3--8-------6-6-8-8--10-|
A---------4444-3-3----------444-666--8--|


Important: The song above is NOT stored on the Chordie server. The original song is hosted at www.guitaretab.com. Chordie works as a search engine and provides on-the-fly formatting. Chordie does not index songs against artists/composers will. To remove this song please click here.

This song is displayed as text-only. Transposing and tuning is only available for chordpro-songs.

Login - add to songbook

Rating click stars to rate

Layout
Accuracy

SHARE PAGE  




You need to log in to post comments