Guitar Tabs, Chords and Lyrics


Will To Death   John Frusciante



I WHANT TO CHANGE MY FIRST TAB OF JOHN FRUSCIANTE - WILL TO DEATH. THIS IS MUCH BETTER 
PLEASE ERASE THE FIRST ONE (VERSION 1) MY EMAIL IS JORGEGILS@HOTMAIL.COM AND NOW I HAVE 
ACOUNT



| Ultimate Guitar Tabs Archive - your #1 source for tabs!               |
| http://www.ultimate-guitar.com/                                       |
|                                                                       |
| Over 200,000 guitar, guitar pro and bass tabs! Also lessons, news,    |
| columns and guitar forums!                                            |


Artist: John Frusciante
Song: The Will To Death









Author/Artist: John Frusciante
Title: The Will to Dead
Album: The Will to Dead
Transcribed by: Jorge Gil
Email: jorgegils@hotmail.com


--------------------------------------------------------|---------------------|
-9---9-9-9-9-----7--7---------2---2-2-2-----5--5--------|---------------------|
-9---9-9-9-9-----8--8---------2---2-2-2-----6--6--------|---------------------|
-9---9-9---9-----9--9---------4---4---4-----7--7--------|---------------------|
-7---7-----------9--9---------4-------------7--7--------|---------------------|
------------------------------2-------------------------|---------------------|
 Intro                                                x4


--------------------------------------------------------|---------------------|
-9---9-9-9-9-----7--7---------2---2-2-2-----5--5--------|---------------------|
-9---9-9-9-9-----8--8---------2---2-2-2-----6--6--------|---------------------|
-9---9-9---9-----9--9---------4---4---4-----7--7--------|---------------------|
-7---7-----------9--9---------4-------------7--7--------|---------------------|
------------------------------2-------------------------|---------------------|
 Verse                                                x7

And they're thought to be lies
But we saw them, saw them
We looked right in their eyes
Right at them, at them
Pinning space to the world
We're slaughtered, slaughtered
Not a sound to be heard
We're awful...


--------------------------------------------------------|---------------------|
-2---2-2-2-2-----2---2-2-2-2-----2---2-2-2-2------------|---------------------|
-2---2-2-2-2-----2---2-2-2-2-----2---2-2-2-2------------|---------------------|
-4---4-4---4-----4---4-4---4-----4---4-4---4------------|---------------------|
-4---4-----------4---4-----------4---4------------------|---------------------|
-2---------------2---2-----------2----------------------|---------------------|
  Pre-Chorus                                          x1

 ... awful


--------------------------------------------------------|---------------------|
-2-----------2-----------------------4------------------|---------------------|
-2-----------2-----------1-----------4------------------|---------------------|
-4-----------4-----------2-----------4---4---4----------|---------------------|
-4---4---4---4---4---4---2---2---2---2---2---2----------|---------------------|
-2---2---2---2---2---2---0---0---0----------------------|---------------------|
 Chorus                                               x4

And have you seen...     How they run... Out of gas
They beat the pain...    They sing in the rain
Endless and formless...  They fly to the end
And back to the...       Beginning again

 Verse

Have you put them aside
Your crazy thoughts and dreams
No they're a part of me
And they all mean one thing
The will to deat is what keeps me alive
It's one step away, step away
Limitations are set
Only then can we go all the way, all the way


 Chorus

And have you seen how the cars when they pass
They come your way... Then they're speeding away
Coming to you and then going away
But for them nothing changed




Important: The song above is NOT stored on the Chordie server. The original song is hosted at www.guitaretab.com. Chordie works as a search engine and provides on-the-fly formatting. Chordie does not index songs against artists'/composers' will. To remove this song please click here.

This song is displayed as text-only. Transposing and tuning is only available for chordpro-songs.

Login - add to songbook

Rating click stars to rate

Layout
Accuracy

SHARE PAGE  




You need to log in to post comments