-------------------------------------------------------------------------------

-------------------------------------------------------------------------------

Tuning:eBGDAE

These don't have a name
 BF#G#m
I've been a fool to let it out that way
 BF#G#m
And it'll keep on coming back         
 C#mG#m
 A fool gets laughed at    
 BF#G#m
 and I'll go on and on and on
 EBF#G#m
Letting it out when the feeling's strong
 EBF#G#m
I wonder who in the single thing
 BF#C#mG#m
Made this night and this ugly dreams
 BF#C#mG#m
These all pass away          
 BF#G#m
 It is clear that one can see through a day
 BF#G#m
And i may have met my match        
 C#mG#m
Completely unattached   
 BF#G#m
with no one no one no one
 EBF#G#m
on whom to rely Let's sing that song
 EBF#G#m
well I didn't read the last page
 BF#C#mG#m
You thought of me at that final stage
 BF#C#mG#m
eenie meenie miny moe         
 EEF#G#m
It's about time About time to go
 EEF#G#m
eenie meenie miny moe         
 EEF#G#m
It's about time About time to go
 EEF#
G#m E F# G#m (4 times)

Solo:

e|---------------------------------------------------------------------------|
B|------9--11--12--11-9------------------------------------------------------|
G|---8--------------------9--11--9-8-----------------------------------------|
D|---------------------------------------------------------------------------|
A|---------------------------------------------------------------------------|
E|---------------------------------------------------------------------------|
e|----------------9-11-9-----------------------------------------------------|
B|------9---11-12--------12-11-9---------------------------------------------|
G|---8-----------------------------------------------------------------------|
D|---------------------------------------------------------------------------|
A|---------------------------------------------------------------------------|
E|---------------------------------------------------------------------------|
e|---------------------------------------------------------------------------|
B|------9--11--12--11-9------------------------------------------------------|
G|---8--------------------9--11--9--8-------6--8--6--4--6--4--3--4--3--------|
D|----------------------------------------------------------------------6----|
A|---------------------------------------------------------------------------|
E|---------------------------------------------------------------------------|				



B C#m E F# G#m
variations - click chord images
Transpose chords:
Tuning:
Cool service:
View: Size:
A  A  A
Rating:
Layout:
  • Currently 2.6/5 Stars.
  • 1
  • 2
  • 3
  • 4
  • 5
 
Accuracy:
  • Currently 2.5/5 Stars.
  • 1
  • 2
  • 3
  • 4
  • 5
 
click stars to rate
Chordie recommends:
Check out these online guitar lessons
Songbook:
Login to add this song to your songbook
Support the artist
Preview/buy this song
MSN Music
Why this non-profit ad?

 
login to add comments/video/corrections