Guitar Tabs, Chords and Lyrics


Beginning Again   John Frusciante



4/4
 I Know your a slave kid
|-0-------------2-------------|
|-0-------------3-------------|
|-0-------------2-------------|
|-2-------------0-------------|
|-2-------------0-------------|
|-0---------------------------|

    And you were my slut
|-0---------------2-----------|
|-0---------------3-----------|
|-0---------------2-----------|
|-2---------------0-----------|
|-2---------------0-----------|
|-0---------------------------|

      Bleed in my blood
|-0--------------2------------|
|-0--------------3------------|
|-0--------------2------------|
|-2--------------0------------|
|-2--------------0------------|
|-0---------------------------|

You'll be on both ends
|-0----------------------------0-----------|
|-0----------------------------1-----------|
|-2----------------------------0-----------|
|-2----------------------------2-----------|
|-0----------------------------3-----------|
|--------------------------0-2-3-----------|


(End)
    no (ho) now(ow) it swears to be full
|-0------3------2------0----|
|-0------0------3------1----|
|-0------0------2------2----|
|-2------0------1------2----|
|-2------2------1------0----|


Important: The song above is NOT stored on the Chordie server. The original song is hosted at www.guitaretab.com. Chordie works as a search engine and provides on-the-fly formatting. Chordie does not index songs against artists'/composers' will. To remove this song please click here.

This song is displayed as text-only. Transposing and tuning is only available for chordpro-songs.

Login - add to songbook

Rating click stars to rate

Layout
Accuracy

SHARE PAGE  




You need to log in to post comments