Guitar Tabs, Chords and Lyrics


Repeating  John Frusciante

----2---2---4---------------------------|


----2---2---3---3---2----2-----2--------|


----2---2---2---4---4----4-----2--6--1--|

----4---2---0---4---4----4-----2--7--2--|
----------------2---0----------0--7--2--|
-------------------------4--------5--0--|
-------2----------------------|
----7--3---3--9---9----12----|
----7--2---1--7---10---13----|
----7--0---2--9---9----12----|
----5------2--7---8----11----|
-----------0-----------------|
[F#m]Everyone’s al[A6]ike here [D+]now
W[Bm]hen it was [A/Bm]right I moved o[G#/Bm]ut
B[A]ack from w[E]here I [F#m]came
D* A* E7*
Life’s a funny game


[F#m]Ending on a [A6]calling [D+]card
N[Bm]ot even k[A/Bm]nowing where we[G#/Bm] are
[A]I make a c[E]owardly[F#m] mistake
D* A* E7*
Where are all the plans we made
Fdim G#dim D* A* E
Here I go again to fall apart So long


---0-2---    -----0---|
-3-----3-    -2-3---2-|
-2-------    -2-------|
-0-------    -2-------|
---------    -0-------|
---------    ---------|

W[D]hen we meet a[A]gain I will not [E]be t[E7]here
Fdim G#dim D* A* E
Believing in a thing you see to disbelieve
A[D]ll the days that s[A]lipped away are [E]re[E7]peati[F#m]ng

Solo tabbed out as best as possible...

-17-16-19b1----------------------------------|
------------19~-19b1-19-19-19-19--19b1--17---|
---------------------------------------------|
---------------------------------------------|
---------------------------------------------|
---------------------------------------------|
---------------------------------------17-17b1---------------|
->b1/2-14--14-14-17-17b1-14---17b1-(19)---------17b1->b1-17--|
-------------------------------------------------------------|
-------------------------------------------------------------|
-------------------------------------------------------------|
-------------------------------------------------------------|


[F#m]Aint you comin’[A6] along th[D+]is time
I[Bm]’ll show you the [A/Bm]things that were[G#/Bm] mine
[A]m bleeding from the [E]walls that [F#m]cry
D* A* E7*
Life has always passed me by
Fdim G#dim D* A* E
Here I go again to fall apart So long
W[D]hen we meet a[A]gain I will not [E]be t[E7]here
Fdim G#dim D* A* E
Believing in a thing you see to disbelieve
[D]All the days that [A]slipped away are[E] r[E7]epeat[F#m]ing

Arpeggio
-14--12--14--16--14----14----12----12--12--14--14--12--12--16-|
-14--14--15--15--15----15----12----14--12--14--15--14--12--12-|
-14--14--14--14--16----14----13----14--13--14--14--14--13--13-|
--------------------------------------------------------------|
--------------------------------------------------------------|
--------------------------------------------------------------|
------------------------------------------|
-9-------------12---------------15-14-12--|
-10------------13---------------14-14-13--|
-9-------------12-------------------------|
------------------------------------------|
------------------------------------------|
------------------------------------------|

Fdim G#dim D* A* E
Believing in a thing you see to disbelieve
[D]All the days that [A]slipped away are[E] r[E7]epeat[F#m]ing

Important: The song above is NOT stored on the Chordie server. The original song is hosted at www.guitaretab.com. Chordie works as a search engine and provides on-the-fly formatting. Chordie does not index songs against artists'/composers' will. To remove this song please click here.

Text color:
Chord color:
Chord grids: 
Font size:    
Page size: 

A A6 Bm D D+ E E7 F#m
variations - click chord images

Login - add to songbook

Transpose chords

Tuning

Rating click stars to rate

Layout
Accuracy

SHARE PAGE  




You need to log in to post comments