Chordie logo

Riff   John Lee Hooker



                          JOHN LEE HOOKER RIFF

Most of it sampled from 'It serves you right to suffer' from 'Tantalizing with the blues.'
But not exact, just fun to play around with.

PLAY SLOW


-------------------------------------------------------------------|
-------------------------------------------------------------------|
----------------------------------------------0--------------------|
-------0-------------------------------0--------2------------------|
---0-2----0--2---------------------0-2----2------------------------|
-----------------0--0-0--0-0--0-0-------------------0-0--0-0--0-0--|

Repeat a bunch of times with slight variations, then


-----------------7-------7---------13-(bend at same time)-15-------|
------10-(bend)-----10---------------------------------------------|
-------------------------------------------------------------------|
-------------------------------------------------------------------|
-------------------------------------------------------------------|
-------------------------------------------------------------------|

----15-13-----------------------------------5-0-0------------------|
-----------15----------8-(bend)-5-8-5---5-8-------0----------------|
----------------------------------------------------22222----------|
---------------------------------------------------------22--------|
----------------------------------------------------------22-------|
-----------------------------------------------------------0-------|


-------------------------------------------------------------------|
-------------------------------------------------------------------|
-------------------------------------------------------------------|
------0------------------------------------------------------------|
--0-2---0-2--------------------------------------------------------|


Important: The song above is NOT stored on the Chordie server. The original song is hosted at www.guitaretab.com. Chordie works as a search engine and provides on-the-fly formatting. Chordie does not index songs against artists/composers will. To remove this song please click here.

This song is displayed as text-only. Transposing and tuning is only available for chordpro-songs.

Login - add to songbook

Rating click stars to rate

Layout
Accuracy

SHARE PAGE  



You need to log in to post comments