"yes"; ?> Just Like Starting Over by John Lennon - guitar chords, guitar tabs and lyrics - chordie

Just Like Starting Over

John Lennon

e---------0-------1--------2-------0-------0-------2-------1----|

B---------2-------2--------2-------3-------2-------3-------3----|
G---------2-------2--------2-------1-------0-------2-------2----|
D---------2-------3--------4-------2-------2-------0-------0----|
A---------0-------0--------4-------2-------0-------0-------0----|
E--------------------------2-------0----------------------------|
 BmEC#mF#GAmD7
e----2-------0-------4-------2-------3-------0-------1----|
B----3-------0-------5-------2-------3-------1-------2----|
G----4-------1-------6-------3-------0-------2-------1----|
D----4-------2-------6-------4-------0-------2-------0----|
A----2-------2-------4-------4-------2-------0------------|
E------------0---------------2-------3--------------------|

 EmD/F#E/G#D
e----0-------0-------0-------2----|
B----0-------3-------0-------3----|
G----0-------2-------4-------2----|     (There are so many chords
D----2-------0-------2-------0----|      in this song)
A----2-------x-------x------------|
E----0-------2-------4------------|


 AA+F#/AA+
  Our life, together, is so precious, together,
 AE7AE7
we have grown, we have grown.  
 AA+F#/A
  Although our love, is still special,  
 A7D/ADm/AA
let's take a chance and fly away, somewhere alone.

 A
  It's been too long since we took the time,
 A+BmE
No one's to blame.  I know time flies so quickly.    
 BmE
   But, when I see you darlin',
 C#mF#BmE
   It's like we both are fallin' in love, again, it'll be,
 AA+AA+
  just like starting over.  Starting over.   

 A
  Every day we used to make it, love.
 A+BmE
Why can't we be makin' love, nice and easy?     
 BmE
   It's time to spread our wings and,
 C#mF#BmE
 fly.  Don't let another day go by, my love, it'll be,
 AA+AG
  just like starting over.  Starting over.  

 GAm
   Why don't we take off alone,
 D7G
   take a trip somewhere far, far away.
 EmAm
   We'll be together all alone, again,
 D7GED/F#E/G#
   like we used to be in the early days.  Well, well dar - lin'

 A
  It's been too long since we took the time,
 A+BmE
No one's to blame.  I know time flies so quickly.   
 BmE
   But, when I see you darlin'
 C#mF#BmE
   It's like we both are falling in love, again, it'll be
 AA+AA+
  just like starting over.  Starting over.   

 AA+F#/AA+
  Our life, together, is so precious, together,
 AE7AE7
we have grown, we have grown.   
 AA+F#/A
  Although our love, is still special,   
 A7D/ADm/A
let's take a chance and fly away, somewhere...
A and A+ repeat and fade out.
There you have it. This is not that difficult, and it's a great song. So, hope you enjoy. FRANK MINELLA.


A A+ A7 Am Bm C#m D D/F# D7 Dm/A E E/G# E7 Em F# G
variations - click chord images
Transpose chords:
Tuning:
Cool service:
View: Size:
A  A  A
Rating:
Layout:
  • Currently 2.2/5 Stars.
  • 1
  • 2
  • 3
  • 4
  • 5
 
Accuracy:
  • Currently 1.5/5 Stars.
  • 1
  • 2
  • 3
  • 4
  • 5
 
click stars to rate
Chordie recommends:
Get acoustic guitar lessons and electric guitar lessons at JamPlay.com
Songbook:
Login to add this song to your songbook
Support the artist
Preview/buy this song
MSN Music
Why this non-profit ad?

 
login to add comments/video/corrections