Chordie logo


Lesson Learned   John Mayer



Verse

"He broke a heart
And now its raining
Just to rub it in"

e --0----4----2----2--------------------------|
B --2----5----2----3--------------------------|
G --2----6----2----2--------------------------|
D --2----6----4----4--------------------------|
A --0----4----4----2--------------------------|
E --x----x----2----x--------------------------|


"I'm at your door
I feel so crazy about it"

e --0----4----2----22222----------------------|
B --2----5----2----33333----------------------|
G --2----6----2----22222----------------------|
D --2----6----4----44444----------------------|
A --0----4----4----22222----------------------|
E --x----x----2----xxxxx----------------------|


"You'll say I told you so
You saw it long ago
You knew he had to go"

e --0----4----2----2--------------------------|
B --2----5----2----3--------------------------|
G --2----6----2----2--------------------------|
D --2----6----4----4--------------------------|
A --0----4----4----2--------------------------|
E --x----x----2----x--------------------------|


"I finally came 'round
I'm back on solid ground
Can't let it get me down"

e --0----4----2----2--------------------------|
B --2----5----2----3--------------------------|
G --2----6----2----2--------------------------|
D --2----6----4----4--------------------------|
A --0----4----4----2--------------------------|
E --x----x----2----x--------------------------|


Pre-Chorus

"It's alright
It's alright
It's alright"

e --0----4----2----2--------------------------|
B --2----5----2----3--------------------------|
G --2----6----2----2--------------------------|
D --2----6----4----4--------------------------|
A --0----4----4----2--------------------------|
E --x----x----2----x--------------------------|


Chorus

"Yes I was burned, but I call it a lesson learned
Mistake overturned, so I call it a lesson learned
My soul has returned, so I call it a lesson learned.
Another lesson learned"

e ----------------------------------x-x-------|
B ----------------------------------x-x-------|
G --9h11p9--------------------------x-x-------|
D ---------12-9h11p9----------------7-7-------|
A -------------------12-9h11p9s7----7-9-------|
E ----------------------------------9-10------|


e ----------------------------------x-x-------|
B ----------------------------------x-x-------|
G --9h11p9--------------------------x-x-------|
D ---------12-9h11p9----------------7-7-------|
A -------------------12-9h11p9s7----7-9-------|
E ----------------------------------9-10------|


e ----------------------------------x-x-------|
B ----9h10p9------------------------x-x-------|
G --9--------11-9h11p9--------------x-x-------|
D ---------------------12-9h11p9----7-7-------|
A -------------------------------12-7-9-------|
E ----------------------------------9-10------|

"..Another lesson learned"

e ----------------------x---------------------|
B ----------------------x---------------------|
G ----------------------9---------------------|
D ----------------------x---------------------|
A ----------------------9---------------------|
E ----------------------10--------------------|

- Verse x1
- Chorus x1

Bridge

"Life perfect
Ain't perfect
If you don't know what the struggle's for"

e --2----x----0-------------------------------|
B --3----2----0-------------------------------|
G --2----2----1-------------------------------|
D --0----2----2-------------------------------|
A --x----x----2-------------------------------|
E --x----2----0-------------------------------|


"Falling down ain't falling down
If you don't cry when you hit the floor"

e --2----x----0-------------------------------|
B --3----2----0-------------------------------|
G --2----2----1-------------------------------|
D --0----2----2-------------------------------|
A --x----x----2-------------------------------|
E --x----2----0-------------------------------|


"It's called the past cause I'm getting past
And I ain't nothing like I was before"

e --2----x----0-------------------------------|
B --3----2----0-------------------------------|
G --2----2----1-------------------------------|
D --0----2----2-------------------------------|
A --x----x----2-------------------------------|
E --x----2----0-------------------------------|

"You ought to see me now"

e -------------2------------------------------|
B -------------3------------------------------|
G -------------2------------------------------|
D -------------0------------------------------|
A -------------x------------------------------|
E -------------x------------------------------|

- Chorus x2



Important: The song above is NOT stored on the Chordie server. The original song is hosted at www.guitaretab.com. Chordie works as a search engine and provides on-the-fly formatting. Chordie does not index songs against artists/composers will. To remove this song please click here.

This song is displayed as text-only. Transposing and tuning is only available for chordpro-songs.

Login - add to songbook

Rating click stars to rate

Layout
Accuracy

SHARE PAGE  




You need to log in to post comments