Guitar Tabs, Chords and Lyrics


Comfortable   John Mayer



-------------------------------------------------------------------------------
		      Comfortable - John Mayer
-------------------------------------------------------------------------------
Tabbed by: Anders Jespersen
Email: liingaard@gmail.com

Tuning: Standard

Capo on 3rd fret


This tab shows a lot of the little variations he makes on the Any Given Thursday DVD.



The intro that he plays before the song on the DVD
 |       |       |        |       |       |        |       |       |        
|------------------------|------------------------|------------------------|
|0-----------0-----------|2-----------3-----------|0-----------0-----------|
|----0-----------0-------|----0-----------0-------|----0-----------0-------|
|--------0-----------0---|--------0-----------0---|--------0-----------0---|
|------------------------|0-----------2-----------|------------------------|
|3-----------3-----------|------------------------|3-----------3-----------|
 
 |       |       |        |       |       |        |       |       |        
|------------------------|------------------------|2-----------0-----------|
|2-----------3-----------|3-----------3p0-2---3---|----0-----------2-------|
|----0-----------0-------|----0-------------------|--------0-----------2---|
|--------0-----------0---|--------0---------------|------------------------|
|0-----------2-----------|------------------------|2-----------0-----------|
|------------------------|3-----------3-----------|------------------------|
 
 |       |       |        |       |       |        |       |       |        
|------------------------|------------------------|------------------------|
|0-----------0-----------|2-----------3-----------|------------------------|
|----0-----------0-------|----0-----------0-------|--------0---2---0-------|
|--------0-----------0---|--------0-----------0---|2---4---------------4---|
|------------------------|0-----------2-----------|------------------------|
|3-----------3-----------|------------------------|3-----------------------|
 
 |       |       |        |       |       |        |       |       |        
|------------------------|------------------------|------------------------|
|------------------------|------------------------|------------------------|
|------------------------|--------0---2---0-------|------------------------|
|----2---4-----------0---|2---4---------------4---|----2---4-----------0---|
|0-----------2---4-------|------------------------|0-----------2---4-------|
|------------------------|3-----------------------|------------------------|
 
 |       |       |        |       |       |        |       |       |        
|------------------------|------------------------|------------------------|
|------------------------|------------------------|------------------------|
|--------0---2p0---------|------------------------|------------------------|
|2---4-----------4---2---|----2---4-----------2---|4-------0-----------0---|
|------------------------|0-----------2---4-------|----------------4-------|
|3-----------------------|------------------------|3-----------------------|
 
 |       |       |        |       |       |        |       |       |        
|------------------------|------------------------|------------------------|
|------------------------|0-----------0-----------|2-----------3-----------|
|------------------------|----0-----------0-------|----0-------------------|
|----0-------0-------0---|--------0-----------0---|--------0---------------|
|2-------0-------4-------|------------------------|0-----------2-----------|
|------------------------|3-----------3-----------|------------------------|





Intro
 |       |       |        |       |       |        |       |       |        
|0h2---------2p--0-------|0---2---3---2-----------|--------2-2-2---0-------|
|3-------------------3---|3---------------3-------|--------3-3-3-------3---|
|2---------2-------------|0-------------------0---|----0-------------------|
|0b------0---------------|0-----------------------|------------------------|
|------------------------|1b----------------------|1/2---------------------|
|------------------------|------------------------|------------------------|
 
 |       |       |        |       |       |        |       |       |        
|0---2---3---2---0-------|------------------------|------------------------|
|1-----------1-------3---|0-----------0-----------|------2-----------3-----|
|0-----------2b----------|----------------0-------|----0---0-------0---0---|
|2-----------------------|--------------------0---|--0-------0---0-------0-|
|0b----------------------|------------------------|0-----------2-----------|
|------------------------|3-----------------------|------------------------|
 
 |       |       |        |       |       |        
|------------2-----------|2-----------------------|
|----------------3-------|3-----------------------|
|--------2-----------2---|2-----------------------|
|----5-------------------|5b----------------------|
|------------------------|------------------------|
|0-----------------------|------------------------|

"I just remembered..."



The little 'thing' he does before going from 1st verse to the bridge
 |       |       |        |       |       |        |       |       |        
|0h2---------2p0---------|------------------------|0---0---0---0---0---0---|
|3---------------3-------|------3-----------3-----|3---3---3---3---3---3---|
|2---------2-------2---2-|--------0-------0---0---|0h2-2---2---2---2---2---|
|0b------0-----------0---|----0-----0---0-------0-|0---0---0---0---0---0---|
|------------------------|0h1---------0-----------|0h2-2---2---2---2---2---|
|------------------------|------------------------|------------------------|
 
 |       |       |        
|0---0---0---3---3---3---|
|0h1-1---1---1---1---1---|
|0---0---0---0---0---0---|
|0h2-2---2---2---2---2---|
|0---0---0---0---0---0---|
|------------------------|

"I canÂīt remember..."


The outro that he plays after the original song on the DVD goes almost exactly like the intro.


The very last part
 |       |       |        |       |       |        |       |       |        
|0h2---------2p0---------|------------------------|0h2---------2p0---------|
|3---------------3-------|------3-----------3-----|3---------------3-------|
|2---------2-------2---2-|--------0-------0---0---|2---------2-------2---2-|
|0b------0-----------0---|----0-----0---0-------0-|0b------0-----------0---|
|------------------------|0h1---------0-----------|------------------------|
|------------------------|------------------------|------------------------|
 
 |       |       |        |       |       |        |       |       |        
|------------------------|0h2---------2-----------|------------------------|
|------3-----------3-----|3---3-------3-----------|------------------------|
|--------0-------0---0---|2-------2---2-----------|------------------------|
|----0-----0---0-------0-|0b----------------------|------------------------|
|0h1---------0-----------|------------------------|------------------------|
|------------------------|------------2-----------|------------------------|



Important: The song above is NOT stored on the Chordie server. The original song is hosted at www.guitaretab.com. Chordie works as a search engine and provides on-the-fly formatting. Chordie does not index songs against artists'/composers' will. To remove this song please click here.

This song is displayed as text-only. Transposing and tuning is only available for chordpro-songs.

Login - add to songbook

Rating click stars to rate

Layout
Accuracy

SHARE PAGE  




You need to log in to post comments