Guitar Tabs, Chords and Lyrics


Message In A Bottle   John Mayer



The other versions of this song were close, but i wanted to make one 100% accurate. ENJOY!!

Intro

E--------------------------------------|
B--------------------------------------|
G------8------4--------6---------------|  X2
D------------------------------6/7-----|
A--0-4----0-0-----0-2-------4----------|
E-------------------------2------------|

E--------------------------------------|
B--------------------------------------|
G------8------4--------6---------------|
D------------------------------6/7-----|
A--0-4----0-0-----0-2-------4----------|


Important: The song above is NOT stored on the Chordie server. The original song is hosted at www.guitaretab.com. Chordie works as a search engine and provides on-the-fly formatting. Chordie does not index songs against artists'/composers' will. To remove this song please click here.

This song is displayed as text-only. Transposing and tuning is only available for chordpro-songs.

Login - add to songbook

Rating click stars to rate

Layout
Accuracy

SHARE PAGE  




You need to log in to post comments