Guitar Tabs, Chords and Lyrics


Raining On The Rock  John Williamson

  [1]    [2]    [3]    [4]    [1]    [2]    [3]    [4]    [1]    [2]    [3]    [4]    [1]    [2]    [3]    [4]         
E|----------------------------------------------------------------|
B|----------------------------------------------------------------|
G|----------------------------------------------------------------|
D|0-0---0-0-0---0-0-0---0-0-0---0-0-0---0-0-0---0-0-0---0-0-0---0-|
A|2-2---2-2-2---2-2-2---2-2-2---2-0-0---0-0-0---0-0-0---0-0-0---0-|
D|0-0---0-0-0---0-0-0---0-0-0---0-0-0---0-0-0---0-0-0---0-0-0---0-|


  [1]    [2]    [3]    [4]    [1]    [2]    [3]    [4]    [1]    [2]    [3]    [4]    [1]    [2]    [3]    [4]         
E|------------------------------------------------------2---2---0-|
B|------------------------------------------------------3---3---0-|
G|------------------------------------------------------2---2---0-|
D|0-0---0-0-0---0-0-0---0-0-0---0-0-0---0-0-0---0-0-0---0---0---0-|
A|2-2---2-2-2---2-2-2---2-2-2---2-0-0---0-0-0---0-0-0---0---0---2-|
D|0-0---0-0-0---0-0-0---0-0-0---0-0-0---0-0-0---0-0-0---0---0---0-|


  [1]    [2]    [3]    [4]    [1]    [2]    [3]    [4]    [1]    [2]    [3]    [4]    [1]    [2]    [3]    [4]         
E|----------------------0---0---2-----------------------2---2---0-|
B|----------------------0---0---3-----------------------3---3---0-|
G|----------------------0---0---2-----------------------2---2---0-|
D|0-0---0-0-0---0-0-0---0---0---0-0-0---0-0-0---0-0-0---0---0---0-|
A|2-2---2-2-2---2-2-2---2---2---0-0-0---0-0-0---0-0-0---0---0---2-|
D|0-0---0-0-0---0-0-0---0---0---0-0-0---0-0-0---0-0-0---0---0---0-|

  [1]    [2]    [3]    [4]    [1]    [2]    [3]    [4]    [1]    [2]    [3]    [4]    [1]    [2]    [3]    [4]         
E|----------------------0---0---2---------------------------------|
B|----------------------0---0---3---------------------------------|
G|----------------------0---0---2---------------------------------|
D|0-0---0-0-0---0-0-0---0---0---0-0-0---0-0-0---0-0-0---0-0-0---0-|
A|2-2---2-2-2---2-2-2---2---2---0-0-0---0-0-0---0-0-0---0-0-0---0-|
D|0-0---0-0-0---0-0-0---0---0---0-0-0---0-0-0---0-0-0---0-0-0---0-|

CHORD FORMATIONS:
D       [DADGBE]000232
Em7/D 010000

NOTE: In the first verse & chorus, only the bottom three strings are
strummed (as in the intro), but after the run-down full chords
are used


[D]Pastel red to burgundy and [Em7/D]spinifex to gold,
We've just come out of the mulga where the plains forever [D]roll.
Where Albert Namatjira has [Em7/D]painted all the scenes,
And a shower has changed the lustre of his [D]land.
CHORUS:
And it's raining on the [Em7/D]rock, in a beautiful [D]country,
And I'm proud to travel [Em7/D]this big land like an Aborigin[D]e.
And it's raining on the [Em7/D]rock, what an almighty sight to [D]see.
And I'm wishing on a [Em7/D]postcard that you were here with [D]me.


CHORD FORMATIONS FOR RUN-DOWN:
E|---11---9----7---5---2---0---|
B|---10---10---8---5---3---0---|
G|---10---9----7---6---2---0---|
D|---0----0----0---0---0---0---|
A|---0----0----0---0---0---2---|
D|---0----0----0---0---0---0---|


[D]Everlasting daisies and a [Em7/D]beautiful desert rose,
Where does their beauty come from, heaven [D]knows.
I could ask the wedgetail but [Em7/D]he's away too high,
I wonder if he understands it's wonderful to [D]fly.

CHORUS

RUN-DOWN x2

It [D]cannot be described with a [Em7/D]picture,
The mesmerising colours of the [D]Olgas.
Or the grandeur of the [Em7/D]rock,
Uluru is [D]power!

CHORUS

RUN-DOWN x3

Important: The song above is NOT stored on the Chordie server. The original song is hosted at www.guitaretab.com. Chordie works as a search engine and provides on-the-fly formatting. Chordie does not index songs against artists'/composers' will. To remove this song please click here.

Text color:
Chord color:
Chord grids: 
Font size:    
Page size: 

D Em7/D
variations - click chord images

Login - add to songbook

Transpose chords

Tuning

Rating click stars to rate

Layout
Accuracy

SHARE PAGE  




You need to log in to post comments