Guitar Tabs, Chords and Lyrics


After The Ball   Johnny Cash



After the Ball
Written by: Johnny Cash
Recorded: December 10,1976
Source: The Essential Johnny Cash Vol. 3

-----------------------------------------------------------------------|
-----------------------------------------------------------------------|
-----------------------------------------------------------------------|
-----3-3-3-----3-3-3------3-3-3-----3----------------------------------|
--------------3-----------3-----------3--------------------------------|
----------------------------------------------------------------- ÊÊ---|(x2)

----------------------------2-------------------------------------|
------------------------2------2----------2-----------------------|
--------------------2--------------2----------2-------------------|
-------------2-2----------------------2----------2----------------|
--------2---------------------------------------------2-----------|


Important: The song above is NOT stored on the Chordie server. The original song is hosted at www.guitaretab.com. Chordie works as a search engine and provides on-the-fly formatting. Chordie does not index songs against artists'/composers' will. To remove this song please click here.

This song is displayed as text-only. Transposing and tuning is only available for chordpro-songs.

Login - add to songbook

Rating click stars to rate

Layout
Accuracy

SHARE PAGE  




You need to log in to post comments