"yes"; ?> Coming For You by Jojo - guitar chords, guitar tabs and lyrics - chordie

Coming For You

Jojo

 G#-466544
 Eb/G - 365xxx
Cm - x35543
C7/E - 032310

Intro:
 C#FmG#Eb/G
e|-----------------|-----------------|-----------------|-----------------|
B|---4---4---4-----|---4---4---4-----|---4---4---4-----|---4---4---4-----|
G|-------------6-5-|-------------6-5-|-------------6-5-|-------------6-5-|
D|-----------------|-3---3---3-------|-6---6---6-------|-5---5---5-------| (x2)
A|-4---4---4-------|-----------------|-----------------|-----------------|
E|-----------------|-----------------|-----------------|-----------------|


Verse 1:
 G#Eb/G
   I had a change of heart Don't know where to start
 FmEb/G
   What I'm about to say May surprise you
 G#Eb/G
   But now I see it clear Life ain't always fair
 FmEb/G
   oh...oh What can you do

Piano:
 G#Eb/GFmEb/G
e|---------------|--------11-----|---------------|-------------------|
B|--------11--13-|------------11-|-------9--11-8-|------------11--13-|
G|---------------|---------------|---------------|--------13---------|
D|-----13--------|-----13--------|----11---------|-----13------------| (x2)
A|-11------------|-10------------|-8-------------|-10----------------|
E|---------------|---------------|---------------|-------------------|


Refrain:
 C7/EFm
When you don't want to hurt him Cause you don't deserve him
 F#
And there's no other way yea yeah yeah yea

Piano:
 C7/EFmF#
e|-------6--8----|------4---6-|------4--6--9-|
B|-----4-------9-|----1-------|----4---------|
G|---3-----------|------------|--------------|
D|-2-------------|-3----------|-4------------|
A|-3-------------|------------|--------------|
E|---------------|------------|--------------|


Chorus:
 C#Fm
   I'm breaking down I just can't take it anymore
 G#Cm
Oh No, I won't let you go You know I'm coming for you
 C#Fm
   No matter what its gonna take I gotta make this move
 G#Cm
   You're the one, that I choose You know I'm coming for you
 C#Fm
   And I just can't go another day Without you
 G#Cm
 next to me oh...oh yeah

Piano: (x3)
 C#FmG#Cm
e|-----------------|-----------------|-----------------|-----------------|
B|---4---4---4-----|---4---4---4-----|---4---4---4-----|---4---4---4-----|
G|-------------6-5-|-------------6-5-|-------------6-5-|-------------6-5-|
D|-----------------|-3---3---3-------|-6---6---6-------|-----------------|
A|-4---4---4-------|-----------------|-----------------|-3---3---3-------|
E|-----------------|-----------------|-----------------|-----------------|


Verse 2: Piano part is the same for verse 1
 G#Eb/G
   Don't know what to say Guess I'll take the blame
 FmEb/G
   Eventually it is bound to happen
 G#Eb/G
   I know you played your part I ain't tryin to make it hard
 FmEb/G
   But it's the right thing to do

(Repeat Refrain And Chorus)

Bridge: No Piano
 EF#G#
   Now that you know the truth Just wanna be with you
 E
Can't go back, this is real Cause what we share
 F#C#
It's undeniable Don't want to hide no more
 EF#
Here I am and I'm coming for you...woah

Interlude: Piano
 C#FmG#Eb/G
e|-----------------|-----------------|-----------------|-----------------|
B|---4---4---4-----|---4---4---4-----|---4---4---4-----|---4---4---4-----|
G|-------------6-5-|-------------6-5-|-------------6-5-|-------------6-5-|
D|-----------------|-3---3---3-------|-6---6---6-------|-5---5---5-------|
A|-4---4---4-------|-----------------|-----------------|-----------------|
E|-----------------|-----------------|-----------------|-----------------|


(Repeat Chorus till fade)

Guitar Part while Ending: Repeat Many Times
e|------8-|

B|-9-11---|
G|--------|
D|--------|
A|--------|
E|--------|				



C# C7/E Cm E Eb/G F# Fm G#
variations - click chord images
Transpose chords:
Tuning:
Cool service:
View: Size:
A  A  A
Rating:
Layout:
  • Currently 2.9/5 Stars.
  • 1
  • 2
  • 3
  • 4
  • 5
 
Accuracy:
  • Currently 3.1/5 Stars.
  • 1
  • 2
  • 3
  • 4
  • 5
 
click stars to rate
Chordie recommends:
Learn how to play guitar at JamPlay.com
Songbook:
Login to add this song to your songbook
Support the artist
Preview/buy this song
MSN Music
Why this non-profit ad?

 
login to add comments/video/corrections