Guitar Tabs, Chords and Lyrics


Halv  Jokke & Valentinerne

-------------------------------------------------------------------------------



-------------------------------------------------------------------------------

e|-------------------------------------------------------------------------|
B|-------------------------------------------------------------------------|
G|--5-5-5--------5---5-5-5-------5---5-5--5--------------------5-----------|
D|--5-5-5--------5---5-5-5-------5---5-5--5--------5-3-2-3-----5-----------|
A|--3-3-3--5-/7--3---3-3-3-------3---3-3--3--5-/7-----------5--3-----------|
E|--------------------------3-/5-------------------------------------------|
[C]  Ikke f[G]orlat meg[Am], ikke fo[F]rsvinn
[C]  Ikke gå rundt og [G]hat meg,
[Am]  du veit at jeg er [F]din
ref:
[F]   Og helt, helt uten [G]deg er jeg [C]halv og jeg [G]lengter
   [C]tilbake til [F]det s[C]om [G]vi ha[C]dde som [G]var
   så [F]mors[C]omt o[F]g [G]kult,
   så æ[F]rl[C]ig og [F]ek[G]te
   [F]du [C]kan ikke [F]nek[G]te på [F]det min venn

Vers2:
Alt det teite vi sloss om, alt det kvalme vi skrek
Jeg skulle alltid bosse, min lille macho-lek
men helt, helt uten deg er jeg halv og jeg angrer
på alt det jeg gjorde og sa,
men jeg håper du husker det gode,
de tinga vi lo av
Kanskje kan det bli to av oss igjen

Bridge:
[Am]Vi kommer [E]fra nøyaktig[Am] samme [E]stamme
[Am]Vi har vok[E]st opp i den[Am] samme [E]gamle gammen
[C]Vi har all[G]tid hatt den[C] samme gode [G]smaken  [C]
Jeg har [G]aldri greid å [Am]holde meg til [E]saken [Am]   [E]  [Am]   [E]  [Am]    [G]    [C]

Solo:
e|-----------------------------3--------------5------------------------------|
B|---------------------------5---5-3----5---8---8--8-10----------------------|
G|------------7b8rb8--5-2-5----------5---------------------------------------|
D|-------2-5-----------------------------------------------------------------|
A|-3-3/5---------------------------------------------------------------------|
E|---------------------------------------------------------------------------|
e|--8-10b11^^-10-8h10b11^^^^r-8h10-8-----------------------------------------|
B|---------------------------------------------------------------------------|
G|---------------------------------------------------------------------------|
D|---------------------------------------------------------------------------|
A|---------------------------------------------------------------------------|
E|---------------------------------------------------------------------------|


ref:
ref2:

Men ikke separer deg,
ikke fra meg
Du kan reparere meg,
og jeg kan fikse deg

For helt, helt uten oss er vi lost uten stedsans
i mørket et sted uten fyr eller røyk
Og det e'kke no' morsomt, det e'kke no' kult
Det e'kke no' flipp, eller gøy engang

vers

Ikke forlat meg (nei, nei, nei, nei, ikke meg)
Ikke forsvinn (nei, nei, nei, nei)
Ikke forlat meg (nei, nei, nei, nei, ikke meg)
du veit at jeg er din
Ikke forlat meg (nei, nei, nei, nei, ikke meg)
Ikke forsvinn (nei, nei, nei, nei)
Ikke forlat meg (nei, nei, nei, nei, ikke meg)
Ikke forsvinn (nei, nei, nei, nei)
Ikke forlat meg (nei, nei, nei, nei, ikke meg)
Ikke forsvinn (nei, nei, nei, nei)

Lyrics from www.Jokke.nu

| / slide up
| \ slide down
| h hammer-on
| p pull-off
| ~ vibrato
| + harmonic
| x Mute note
| ^ repeat bend
===============================================================================

Important: The song above is NOT stored on the Chordie server. The original song is hosted at www.guitaretab.com. Chordie works as a search engine and provides on-the-fly formatting. Chordie does not index songs against artists'/composers' will. To remove this song please click here.

Text color:
Chord color:
Chord grids: 
Font size:    
Page size: 

Am C E F G
variations - click chord images

Login - add to songbook

Transpose chords

Tuning

Rating click stars to rate

Layout
Accuracy

SHARE PAGE  




You need to log in to post comments