Guitar Tabs, Chords and Lyrics


Dont Interrupt The Sorrow  Joni Mitchell



                -------------------------------------------------

-------
D------------------------8-------8-------8------0---------|
B---8----6----10---------8-------8-------8------0---------|
G---9----7----10---------8-------8-------8------0---------|
D---10---8----10---------8-------8-------8------0---------|
G---0----0----0-----8----8--8----8--8----8--8---0---------|
D-------------------6----6--6----6--6----6--6-------------|
D-----------------------5-------5-------5------0--------|
B----6---0---7----------5-------5-------5------0--------|
G----7---0---7----------5-------5-------5------0--------|
D----8---0---7----------5-------5-------5------0--------|
G----0---0---0-----5----5--5----5--5----5--5---0--------|
D------------------3----3--3----3--3----3--3------------|
D--------------------3--------3--------3------0----------|
B---6---0---5--------3--------3--------3------0----------|
G---7---0---5--------3--------3--------3------0----------|
D---8---0---5--------3--------3--------3------0----------|
G---0---0---0----3---3--3-----3--3-----3--3---0----------|
D----------------1---1--1-----1--1-----1--1--------------|
D---0---0--0----0---0--0----0----0----------------------------------|
B---1---1--0----1---1--0----0h1--0----------------------------------|
G---0---0--0----0---0--0----0----0----------------------------------|
D---3---3--0----2---2--0----0h2--0----------------------------------|
G---0---0--0----0---0--0----0----0----------------------------------|
D-------------------------------------------------------------------|
---------
[Csus4/G]Don't interrupt the [C/G]sorrow
[C/G]      [G]  Darn right
[Csus4/G]In flames our [C/G]prophet witches
Be p[G]olite
[Eb/Ab]   A room full of glasse[F/Bb]s
[C]He says "Your notches liberati[D]on doll"
[Csus4/G]  And he chains me with that [C/G]serpent to that Ethiopian [G]wall
VERSE 2:
---------


Anima rising
Queen of queens
Wash my guilt of eden
Wash and balance me
He says "Anima rising
uprising in me tonight"
She's a vengeful little goddess
With an ancient crown to fight


...and so on for the other verses.

After the 3rd (or maybe 4th) verse she repeats the INTRO tab above, then
on to another verse or two.
The song ends on a repeated open G chord.

Chord Shapes :
-----------------


a=10


[DGDGBD]000000     [DGDGBD]003010     [DGDGBD]002010      [DGDGBD]688888      [DGDGBD]8aaaaa
   [G]         [Csus4/G]             [C/G]           [Eb/Ab] [F/Bb] 
^^^^^^^^^^^^^^^^^^^^^^^^^^^^

The open bottom D string is
optional here


[DGDGBD]x33333     [DGDGBD]x55555
   [Bb]            [C]                      

Important: The song above is NOT stored on the Chordie server. The original song is hosted at www.guitaretab.com. Chordie works as a search engine and provides on-the-fly formatting. Chordie does not index songs against artists'/composers' will. To remove this song please click here.

Text color:
Chord color:
Chord grids: 
Font size:    
Page size: 

Bb C C/G Csus4/G D Eb/Ab G
variations - click chord images

Login - add to songbook

Transpose chords

Tuning

Rating click stars to rate

Layout
Accuracy

SHARE PAGE  




You need to log in to post comments