Guitar Tabs, Chords and Lyrics


Un Velero Llamado Libertad  Jose Luis Perales



[4/4] Gtr I
~ ~~~~~~~ ~
H q Q q Q Q Q Q H H H H
|-4----2--0--2--4-----|----0--4----7----7----5----|
|------------------5--|---------------------------|
|---------------------|-4-------------------------|
|---------------------|---------------------------|
|---------------------|---------------------------|
|---------------------|---------------------------|



~ ~~~~~~~
H Q H H H H
|-0----2h=4----7----9----7----|
|-----------------------------|
|-----------------------------|
|-----------------------------|
|-----------------------------|
|-----------------------------|



  [B]  [B]    [B]  [B]     [B]     [B]     [B]     [B]     [B]     [B]     [B]                                          
|-5-4----------0----------------------------------|
|-------7-5---------4s===5----2----7----7----5----|
|-------------------------------------------------|
|-------------------------------------------------|
|-------------------------------------------------|
|-------------------------------------------------|				

Important: The song above is NOT stored on the Chordie server. The original song is hosted at www.guitaretab.com. Chordie works as a search engine and provides on-the-fly formatting. Chordie does not index songs against artists'/composers' will. To remove this song please click here.

Text color:
Chord color:
Chord grids: 
Font size:    
Page size: 

B
variations - click chord images

Login - add to songbook

Transpose chords

Tuning

Rating click stars to rate

Layout
Accuracy

SHARE PAGE  




You need to log in to post comments