Guitar Tabs, Chords and Lyrics


Cain And Able   Josh Kelley



I was looking for this tab and no one seems to have done it yet. It's not good by any 
but it's the main bits he's doing. There are definitely some ghost notes that should get 
in but hopefully someone more talented than me will do that for us. :)


Josh Kelley
"Cain and Able"

TUNING: eBGDGD

INTRO/CHORUS:

E||----------------|--------------|----------------|--------------|
B||----------------|--0h3p0-------|----------------|--0h3p0-------|
G||--------2--2----|---------2----|--------2--2----|---------2----|
D||-----4----------|--------------|-----4----------|--------------|
G||----------------|--------------|----------------|--------------|
D||--0-------------|--------------|--0-------------|--------------|

E||----------------|--------------|------------------|--------------|
B||----------------|--0h3p0-------|------------------|--------------|
G||--------2--2----|---------2----|--------0--0h2----|--------------|
D||-----4----------|--------------|-----4------------|--4-----------|
G||--0-------------|--------------|------------------|--------------|
D||----------------|--------------|--0---------------|--------0-----|

VERSE:

E||----------------|----------------|----------------|----------------|
B||----------------|----------------|----------------|----------------|
G||--------2-------|--------2-------|--------2-------|--------2-------|
D||-----4-----4----|-----4-----4----|-----4-----4----|-----4-----4----|
G||----------------|----------------|----------------|----------------|
D||--0-------------|--0-------------|--0-------------|--0-------------|

E||----------------|----------------|------------------|----------------|
B||----------------|----------------|------------------|----------------|
G||--------2-------|--------2-------|--------0--0h2----|----------------|
D||-----4-----2----|-----4-----2----|-----4------------|--4-------------|
G||--0-------------|--0-------------|------------------|----------------|


Important: The song above is NOT stored on the Chordie server. The original song is hosted at www.guitaretab.com. Chordie works as a search engine and provides on-the-fly formatting. Chordie does not index songs against artists'/composers' will. To remove this song please click here.

This song is displayed as text-only. Transposing and tuning is only available for chordpro-songs.

Login - add to songbook

Rating click stars to rate

Layout
Accuracy

SHARE PAGE  




You need to log in to post comments