eToCache5 = ""; ?> One Of Those Days by Joshua Radin - guitar chords, guitar tabs and lyrics - chordie

One Of Those Days

Joshua Radin

-------------------------------------------------------------------------------

-------------------------------------------------------------------------------

 BmAsus4G5D5Gb
|--2--||--x--||--x--||--x--||--x--|
|--3--||--3--||--3--||--3--||--3--|
|--4--||--2--||--0--||--2--||--2--|
|--4--||--2--||--0--||--0--||--0--|
|--2--||--0--||--x--||--x--||--x--|
|--x--||--x--||--3--||--x--||--2--|


*D5 - (xx023x) or (x577xx)

Tuning: Half a Step Down

Verse-

 BmAsus4G5
 Wait right here
 Asus4Bm
Was all she said to me
 Asus4G5Asus4Bm
And so right here I stay                    
 Asus4G5
 Time has reached our home
 Asus4Bm
And I've been left alone
 Asus4G5Asus4Bm
It's carried him away                   
 Asus4G5
And everyone keeps saying
 Asus4Bm
 Nothing helps but time
 Asus4G5Asus4Bm
 Time is all I own                  
 Asus4G5Asus4Bm
And time won't stop replaying over in my mind
 Asus4G5Asus4
watch the hours slow down

Chorus-

 D5G5D5
    So I crawl underneath my blanket
 G5
Where I can hide away
 D5
I know I can't take it
 G5GbAsus4
'Cause I see now
 Bm
It's just one of those days

 BmAsus4G5Asus4

Verse-
 BmAsus4G5
       Now a year has passed
 Asus4Bm
 Alone I stay inside
 Asus4G5Asus4Bm
And I await the rain               
 Asus4G5
To wash away your face
 Asus4Bm
 So I don't have to hide
 Asus4G5Asus4
The sight of you is painful

Chorus-

 D5G5D5
    So I crawl underneath my blanket
 G5
Where I can hide away
 D5
I know I can't take it anymore
 G5GbAsus4
'Cause I see now
 Bm
It's just one of those days

 BmAsus4G5Asus4

Bridge-

 G5Asus4
   I can't stop
 BmD5
Seeing your face       
 G5Asus4
   I can't stop
 Bm
Seeing your face
 D5Asus4
 Everyplace

Chorus-

 D5G5D5
    So I crawl underneath my blanket
 G5
Where I can hide away
 D5
I know I can't take it anymore
 G5GbAsus4
'Cause I see now
 Bm
It's just one of those days

 BmAsus4G5Asus4

How to play the chords to include the lead-
eb|2---------------------------------------|
Bb|3------3------2h3---3------3------2h3---|
Gb|4-x6---2-x4---2-----0-x6---2-x4---2-----|
Db|4------2------2-----0------2------2-----|
Ab|2------0------0-----x------0------0-----|
Eb|--------------------3-------------------|


I hope you get the idea. Any questions/suggestions e-mail me.
Enjoy.

| / slide up
| \ slide down
| h hammer-on
| p pull-off
| ~ vibrato
| + harmonic
| x Mute note
===============================================================================


Asus4 Bm D5 G5 Gb
variations - click chord images
Transpose chords:
Tuning:
Cool service:
View: Size:
A  A  A
Rating:
Layout:
  • Currently 2.3/5 Stars.
  • 1
  • 2
  • 3
  • 4
  • 5
 
Accuracy:
  • Currently 3.7/5 Stars.
  • 1
  • 2
  • 3
  • 4
  • 5
 
click stars to rate
Chordie recommends:
Get acoustic guitar lessons and electric guitar lessons at JamPlay.com
Songbook:
Login to add this song to your songbook
Support the artist
Preview/buy this song
MSN Music
Why this non-profit ad?

 
login to add comments/video/corrections