eToCache5 = ""; ?> Feeling That Way Anytime by Journey - guitar chords, guitar tabs and lyrics - chordie

Feeling That Way Anytime

Journey

 CG
 Opened my eyes to a new kinda way

 CG
 All the good times that you saved

 BbFFmEbBb
 Are you feeling you feeling that way too

 BbmC
Or am I just am I just your fool

 BbF
When the summer's gone she'll be there

 C
Standing by the light

 BbF
Where's she's been to where she's going

 C
She should know wrong from right

 BbF
Is she feeling are you feeling

 FmEbBb
You feeling that way too

 BbmC
Or am I just am I just your fool

 CG
 A new road is waiting you touched my life

 CG
Whoa soft and warm on a summer's night

 BbFFm
You're the only one I told you

 EbBb
The only one I love

 BbmC
Lovely one I'm thinking of

 BbF
When the summer's gone she'll be there

 C
Standing by the light

 BbF
Where she's been to where she's going to

 C
She should know wrong from right

 BbFFm
Is she feeling are you feeling 

 EbBb
You feeling that way too

 FFm
Wah ah oh yeah yeah yeah

 EbBb
You feeling that way too

 BbF
When the summer's gone she'll be there

 C
Standing by the light

 BbF
Where she's been to where she's going to

 C
She should know wrong from from right

 BbFFmEbBbFFmEb
Is she feeling                    

 BbFC
E--6--6--5--3------5---5---3-----3------------|
B--------------6--------------6-----3--5--5---|
G---------------------------------------------|
D---------------------------------------------|
A---------------------------------------------|
E---------------------------------------------|


 Bb
E----------------------(8)--6--5--6---6--5--3-|
B--5--5--5--3---------------------------------|
G--------------5--5---------------------------|
D---------------------------------------------|
A---------------------------------------------|
E---------------------------------------------|


 FC
E--5--3--------3--5-----3--3---3--------------|
B--------6--6--------6------------6---3-------|
G----------------------------------------5----|
D---------------------------------------------|
A---------------------------------------------|
E---------------------------------------------|


Bb F Fm Eb Bb F C (Whoa feeling that way)

A Cappella
Ooh anytime that you want me

A Cappella Drums fill G5 > E
Ooh anytime that you need me

E D A G5 > E
Ooh anytime that you want me to

E D A G5 > E
Ooh anytime that you need me

 EF#A
 I'm standing here with my arms a mile wide

 EF#A
 I'm hopin' and prayin' for you

 EF#A
 Listen to me and enlighten me

 EF#AG5
 I hope that you need me too  'cause

E D A G5 > E
Ooh anytime that you want me

E D A G5 > E
Ooh anytime that you need me

E D A G5 > E
Ooh anytime that you want me to

E D A G5 > E
Ooh anytime that you need me

 EF#A
Give me all of your sunshine

 EF#A
 A spark is all I need

E F# A G5 > E
To take it away all of the shadows

 EF#A
Well what more can I say yeah

Bm G A G5 > E
Oh anytime at all anytime at all anytime at all

Solo: E D A G5>E D A G5>E D A G5>E

E D A G5 > E
Ooh anytime that you want me

E D A G5 > E
Ooh anytime that you need me

E D A G5 > E
Ooh anytime that you want me to

E D A G5 > E
Ooh anytime that you need me

Outro: E D A G5 > E D A G5 > E


A Bb Bbm C E Eb F F# Fm G G5
variations - click chord images
Transpose chords:
Tuning:
Cool service:
View: Size:
A  A  A
Rating:
Layout:
  • Currently 3/5 Stars.
  • 1
  • 2
  • 3
  • 4
  • 5
 
Accuracy:
  • Currently 3.3/5 Stars.
  • 1
  • 2
  • 3
  • 4
  • 5
 
click stars to rate
Chordie recommends:
Get acoustic guitar lessons and electric guitar lessons at JamPlay.com
Songbook:
Login to add this song to your songbook
Support the artist
Preview/buy this song
MSN Music
Why this non-profit ad?

 
login to add comments/video/corrections