Dont Stop Believin Acoustic

Journey

 EBC#mA
 Just a small town girl, living in a lonely world
 EBG#mA
 She took the midnight train going anywhere
(harmonics at 5th fret on E & B string)

 EBC#mA
 Just a city boy, born and raised in south Detroit
 EBG#mA
 He took the midnight train going anywhere
(strum behind nut then:)

(repeat however many times)
|-------------------------|-7b9----|
|---5-4-----5-4-----5-4---|-7b9----|
|.------6-4-----6-4------.|--------|
|.-----------------------.|--------|
|-------------------------|--------|
|-------------------------|--------|


 EBC#mA
 A singer in a smoky room, a smell of wine and cheap perfume
 EBG#mA
 For a smile they can share the night, it goes on and on and on and on

 AE
 Strangers waiting up and down the boulevard
 AE
Their shadows searching in the night
 AE
 Streetlight, people, living just to find emotion
 AE
 Hiding, somewhere in the night

 EBC#mA
 Working hard to get my fill, everybody wants a thrill
 EBG#mA
Paying anything to roll the dice, just one more time

 EBC#mA
 Some will win, some will lose, some were born to sing the blues
 EBG#mA
Oh, the movie never ends; it goes on and on and on and on

 AE
 Strangers waiting up and down the boulevard
 AE
Their shadows searching in the night
 AE
 Streetlight, people, living just to find emotion
 AE
 Hiding, somewhere in the night

Solo:
(down an octave from the original.)

-4b5--2-|-4-4-2--4b5-2-|-----------------|
--------|--------------|-5-4--5-2-2------|
--------|--------------|-------------4-2-|
--------|--------------|-----------------|
--------|--------------|-----------------|
--------|--------------|-----------------|
|-4b5-4-4-4-2-4b5-2---5b7-5-5/17--|
|-------------------3-------------|
|---------------------------------|
|---------------------------------|
|---------------------------------|
|---------------------------------|


 EBC#mA#
 Don't stop believing hold on to the feeling  
 EBG#m
 Streetlight people      

 EBC#mA#
 Don't stop believing hold on to the feeling  
 EBG#m
 Streetlight people      

 EBC#mA#
 Don't stop believing hold on to the feeling  
 EBG#m
 Streetlight people      


Corrected by Stevenalm. View original
A B C#m E G#m
variations - click chord images
Transpose chords:
Tuning:
Cool service:
View: Size:
A  A  A
Rating:
Layout:
  • Currently 3.3/5 Stars.
  • 1
  • 2
  • 3
  • 4
  • 5
 
Accuracy:
  • Currently 3.2/5 Stars.
  • 1
  • 2
  • 3
  • 4
  • 5
 
click stars to rate
Chordie recommends:
Learn to play this song & others via video guitar lessons at JamPlay.com
Songbook:
Login to add this song to your songbook
Support the artist
Preview/buy this song
MSN Music
Why this non-profit ad?

 
login to add comments/video/corrections