Chordie logo

Disorder     Joy Division



-------------------------------------------------------------------------------
			     Disorder - Joy Division
-------------------------------------------------------------------------------
Tabbed by: Gallagher2006

Tuning: Standard

After the bass intro the guitar comes in.

This riff is used throughout the verse 1 and 2 in the song.

e|---------------------------------------------------------------------------|
B|---------------------------------------------------------------------------|
G|----10----10-----10---10-------10------10------10----10----10--------------|
D|-8-----8-----8------8------8-----------------------------------------------|
A|-----------------------------------8------8--------8----8------------------|
E|---------------------------------------------------------------------------|

The solo that is repeated twice in the song is...

E|---------------------------------------------------------------------------|
B|---------------------------------------------------------------------------|
G|---------------------------------------------------------------------------|
D|-8---10v---8--10--8---10---8--10QB---8-------------------------------------|
A|---------------------------------------------------------------------------|
E|---------------------------------------------------------------------------|

X2

e|---------------------------------------------------------------|
B|---------------------------------------------------------------|
G|-7--8-8-8-7--8--7--8---8--7---7--8--7--8--10-10-10-10----------|
D|---------------------------------------------------------------|
A|---------------------------------------------------------------|
E|---------------------------------------------------------------|

On the final verse the guitar goes...(Approx of guitar strums)

e|---------------------------------------------------------------------------|
B|---------------------------------------------------------------------------|
G|-10-10-10-10-10---12--12--12--12--12-----14-14--14--14--14-----------------|
D|--8--8--8--8--8---10--10--10--10--10-----12-12--12--12--12-----------------|
A|--8--8--8--8--8---10--10--10--10--10-----12-12--12--12--12-----------------|
E|---------------------------------------------------------------------------|

Outro is just that final chord repeated =]


Important: The song above is NOT stored on the Chordie server. The original song is hosted at www.guitaretab.com. Chordie works as a search engine and provides on-the-fly formatting. Chordie does not index songs against artists/composers will. To remove this song please click here.

This song is displayed as text-only. Transposing and tuning is only available for chordpro-songs.

Rating click stars to rate

Layout
Accuracy

SHARE PAGE  

You need to log in to post comments