Guitar Tabs, Chords and Lyrics


Agua Dulce  Juanes

     [B]     [A]              [B]     [A]               [B]                          
e|--------------------------------------------------|
B|-----------------5---5---------------5---5---7----|
G|---------------6---6---8-----------6---6---8------|
D|-----------4-7-----------9-----4-7----------------|
A|--------------------------------------------------|
E|---7-7--------------------------------------------|


        [A]                [B]                                             
e|------------------------------|
B|-----------------5---5--------|
G|---------------6---6---8------|
D|-----------4-7-----------9----|
A|------------------------------|
E|------------------------------|


  [A]                  [B]      [A]                  [B]                         
e|--------------------------------------------------|
B|--------------------------------------------------|
G|---------6----------------------------------------|
D|---4--7-----7--4----------------------------------|
A|------------------6-------------4-----4---6-------|
E|--------------------7--------5------5--------7----|

   [A]                 [B]      [A]                   [B]                        
e|--------------------------------------------------|
B|--------------------------------------------------|
G|---------6----------------------------------------|
D|------7-----7--4----------------------------------|
A|------------------6-----------4--------4----------|
E|--------------------7------------5--5------7------|

[B]    Hace mucho[A] tiempo no me enam[B]oraba de uno[A]s ojos tan bonitos
comun[A]es de lozano b[B]rillo [A]
[B]  Era lo que m[A]enos en mi plan es[B]taba
aunque te [A]admito que a veces so[B]ñaba
con la bel[A]leza de tu mir[B]ada  [A]
[E]   Quiero llevar el ritmo de tu coraz[B]ón
para bailar entre los dos esta canc[A]ión
la verdad, me estoy volviendo a enam[F#m]orar
la verdad, qu[B]iero que sepas que....
[E]Lo que yo siento por ti, es amor
[Dbm]Ganas que me hace util el corazón
[F#m]droga que me hace inmune, ante el dolor
[B]gotas de agua dulce, rayo de sol.
(x2)

(riff)

[B]Llevame,[A]   de ser prec[B]iso,[A]   por la semblanza de tu s[B]ombra
[A]  yo se que tu prendes la l[B]uz [A]  y en mi vida te a[B]somas
[A]  como las blancas pal[B]omas,[A]  cuando la plaza se t[B]oma
[A]  con vuelo inmor[E]tal
   Quiero llevar el ritmo de tu cora[B]zón
para bailar entre los dos esta canc[A]ión
la verdad, me estoy volviendo a enam[F#m]orar
la verdad, qu[B]iero que sepas que....

[E]Lo que yo siento por ti, es amor
[Dbm]Ganas que me hace util el corazón
[F#m]droga que me hace inmune, ante el dolor
[B]gotas de agua dulce, rayo de sol.
(x2)
[E]  es lo que siento por [Dbm]ti
  es lo que siento por [F#m]ti
  es lo que siento por [B]ti  [A]    [E]

Important: The song above is NOT stored on the Chordie server. The original song is hosted at www.guitaretab.com. Chordie works as a search engine and provides on-the-fly formatting. Chordie does not index songs against artists'/composers' will. To remove this song please click here.

Text color:
Chord color:
Chord grids: 
Font size:    
Page size: 

A B Dbm E F#m
variations - click chord images

Login - add to songbook

Transpose chords

Tuning

Rating click stars to rate

Layout
Accuracy

SHARE PAGE  




You need to log in to post comments