Guitar Tabs, Chords and Lyrics


Bandera De Manos  Juanes

Haga[F#m]mos todos
Una bandera con [F#m/E]manos negras
Una bandera con [F#m/D#]manos blancas
Por un mundo m[F#m/D]ejor

En este momento ha[F#m]gamos todos
Una bandera con [F#m/E]manos mestizas
Una bandera con [F#m/D#]manos inmigrantes
Por un mundo m[F#m/D]ejor

[C#m]Ya que estamos can[F#m]sados de t[Bm]antas historias venc[E]idas
Tantas pro[C#m]mesas nunca cump[F#m]lidas
Alc[Bm]emos el alma y la v[E]oz
Y hag[A]amos el amor como [F#m]una manifestación
Que la g[Bm]uerra no da explicación a seg[E]uir así
Quemando la piel de tus m[A]anos,  que son las manos mías
De tu [F#m]alma que es como el alma mía
Que iro[Bm]nías las que nos da la vida
Mientras m[E]iles se mueren de hambre
Los líderes c[D]ompran arse[A]nales y a[Bm]sí siembran dol[E]or
Solo plays over ½ verse

E |-----------------12---------------------------------------------------------|
B |-14------------14--14-------------------------------------------------------|
G |---14-11--11-14------14-11-14-11--------------------------------------14----|
D |--------14----------------------14-11-14-11-9------------9-11-14-11-14------|
A |---------------------------------------------12-9-12-9-12-------------------|
E  |---------------------------------------------------------------------------|
--------------------------------------------------------------------------------|
--------------------------------------------------------------------------------|
---14-13-11h13p11-9----------------------------9---9-11b13-11-9-13b14-11--13b14-|
-14-----------------11-9h11p9-7------7---7-9-11-11----------------------14------|
-------------------------------9-7-9---9----------------------------------------|
--------------------------------------------------------------------------------|
---------------------------------------------------------------------------------|
-----------------------------12-14-15/17-15-14-12-14-12-10-9-10-12-14-12-10-9-10-|
11--11-14-11-14-11--11-13-14-----------------------------------------------------|
--14--------------14-------------------------------------------------------------|
---------------------------------------------------------------------------------|
---------------------------------------------------------------------------------|
--------------------------------------------------------------------------------|
9--9----10----------------------------------------------------------------------|
-11-11-9--11--------------------------------------------------------------------|
--------------------------------------------------------------------------------|
--------------------------------------------------------------------------------|
--------------------------------------------------------------------------------|


Haga[F#m]mos todos
Una solo [F#m/E]bandera todos
Derribemos fro[F#m/D#]nteras todos
Por un mundo m[F#m/D]ejor

En este momento semb[F#m]remos paz
más justicia más [F#m/E]dignidad
libertad con más [F#m/D#]igualdad....
por un mundo m[F#m/D]ejor
[C#m]Ya que estamos can[F#m]sados de t[Bm]antas historias venc[E]idas
Tantas pro[C#m]mesas nunca cump[F#m]lidas
Alc[Bm]emos el alma y la v[E]oz
Y hag[A]amos el amor como [F#m]una manifestación
Que la g[Bm]uerra no da explicación a seg[E]uir así
Quemando la piel de tus m[A]anos,  que son las manos mías
De tu [F#m]alma que es como el alma mía
Que iro[Bm]nías las que nos da la vida
Mientras m[E]iles se mueren de hambre
Los líderes c[D]ompran arse[A]nales y a[Bm]sí siembran dol[E]or
Y comp[D]ran arsen[A]ales y [Bm]asi siembran dol[E]or      [A]
This is my first tab - hope you enjoyed it!
Any comments or corrections, please email me at annie15ish@hotmail.com

Important: The song above is NOT stored on the Chordie server. The original song is hosted at www.guitaretab.com. Chordie works as a search engine and provides on-the-fly formatting. Chordie does not index songs against artists'/composers' will. To remove this song please click here.

Text color:
Chord color:
Chord grids: 
Font size:    
Page size: 

A Bm C#m D E F#m F#m/D F#m/D# F#m/E
variations - click chord images

Login - add to songbook

Transpose chords

Tuning

Rating click stars to rate

Layout
Accuracy

SHARE PAGE  




You need to log in to post comments