Guitar Tabs, Chords and Lyrics


Odio Por Amor  Juanes

e---5-----4--------|


B------------------|


G------------------|

D------------------|
A------------------|
E------------------|
[A]Trabajamos como dos locomo[F#m]toras a todo vapor
y olvidamos que [Bm]el amor es más fu[E]erte que el dolor
que en[A]venena la razón [E]
(*)

A (*) F#m (*)
Somos victimas así de nuestra propia tonta creación
Bm (*) E (*)
Y olvidamos que el amor es más fuerte que el dolor
de una [A]llaga en tu interior

Dos hermanos ya [E]no se deben pelear
es momento de [Bm]recapacitar

Es tiempo de [A]cambiar (It’s time to change)
Es tiempo de [F#m]cambiar (It’s time to change)
Es tiempo de [D]saber pedir perdón
Es tiempo de [Bm]cambiar en la mente de [E]todos
el odio por a[A]mor…
e--12-----------10------------9--------------7----------------|
B-------------------------------------------------------------|
G-------------------------------------------------------------|
D-------------------------------------------------------------|
A-------------------------------------------------------------|
E-------------------------------------------------------------|
e--12-----------10------------9--------------7----------5-----|
B-------------------------------------------------------------|
G-------------------------------------------------------------|
D-------------------------------------------------------------|
A-------------------------------------------------------------|
E-------------------------------------------------------------|
e--10---------------9-----------------7----------------5------|
B-------------------------------------------------------------|
G-------------------------------------------------------------|
D-------------------------------------------------------------|
A-------------------------------------------------------------|
E-------------------------------------------------------------|
e--10---------------9-----------------7----------------5p0------|
B---------------------------------------------------------------|
G---------------------------------------------------------------|
D---------------------------------------------------------------|
A---------------------------------------------------------------|
E---------------------------------------------------------------|


[A]Si te pones a pensar, la liber[F#m]tad no tiene propiedad
Quiero estar [Bm]contigo amor, quiero estar [E]contigo amor,
quiero est[A]ar contigo amor [E]

(*)

A (*) F#m (*)
Si aprendemos a escuchar, quizás podamos juntos caminar
Bm (*) E (*)
De la mano hasta el final, yo aquí tu allá,
d[A]e la mano hasta el final

Dos hermanos ya [E]no se deben pelear
es momento de [Bm]recapacitar

Es tiempo de [A]cambiar (It’s time to change)
Es tiempo de [F#m]cambiar (It’s time to change)
Es tiempo de [D]saber pedir perdón
Es tiempo de [Bm]cambiar en la mente de [E]todos
el odio por a[A]mor… (It's time to change)...
Es tiempo de camb[A]iar (It's Time to change)
Es tiempo de [F#m]cambiar (It’s time to change)
Es tiempo de [D]saber pedir perdón
Es tiempo de [Bm]cambiar en la mente de [E]todos
el odio por a[A]mor…
It’s time to change (It's time to ch[A]ange)
It's time to change (El odio por a[F#m]mor)
It's time to change
Es tiempo de [Bm]cambiar en la mente de [E]todos,
el odio por am[A]or...

oooooooh!
It’s time to [F#m]change

Oooooooh!
el odio por am[D]or

Oooooooh!
Es tiempo de camb[Bm]iar en la mente de [E]todos,
el odio por am[A]or
It’s time to [F#m]change
el odio por am[D]or, yeeah!!!!
Es tiempo de cam[Bm]biar en la mente de t[E]odos,
es tiempo de cambi[A]ar.

Important: The song above is NOT stored on the Chordie server. The original song is hosted at www.guitaretab.com. Chordie works as a search engine and provides on-the-fly formatting. Chordie does not index songs against artists'/composers' will. To remove this song please click here.

Text color:
Chord color:
Chord grids: 
Font size:    
Page size: 

A Bm D E F#m
variations - click chord images

Login - add to songbook

Transpose chords

Tuning

Rating click stars to rate

Layout
Accuracy

SHARE PAGE  




You need to log in to post comments