Guitar Tabs, Chords and Lyrics


Ahi Le Va   Juanes



here's the intro to this song and it repeats for most of the song

e---------------------------------|--------------------------|
b-------8------------8------------|-----8------------8-------|
g-------9------------9------------|-----9------------9-------|
d-------9------------9------------|-----9------------9-------|
a---7-------------7---------------|--7------------7----------|
e----------7--10--------7--7--10--|--------7--10-------7--7--|

e---------------------------------|----------------------------|
b------8-------------8------------|-----8------------8---------|
g------9-------------9------------|-----9------------9---------|
d------9-------------9------------|-----9------------9---------|
a---7-------------7---------------|--7------------7------------|


Important: The song above is NOT stored on the Chordie server. The original song is hosted at www.guitaretab.com. Chordie works as a search engine and provides on-the-fly formatting. Chordie does not index songs against artists'/composers' will. To remove this song please click here.

This song is displayed as text-only. Transposing and tuning is only available for chordpro-songs.

Login - add to songbook

Rating click stars to rate

Layout
Accuracy

SHARE PAGE  




You need to log in to post comments