Guitar Tabs, Chords and Lyrics


Take On The World   Judas Priest



                      JUDAS PRIEST - TAKE ON THE WORLD
                     From the Album KILLING MACHINE
              Copyright 1978 - COLUMBIA
                     Version 1.0 - (MARCH - 2001)

Transcribed by: BJØRN

For Questions, Comments, Newest Version, or Corrections contact
(YOUR NAME): at (YOUR E-MAIL ADDRESS)

Check Out Death Warp, With More Transcriptions On It:
 http://www.wam.umd.edu/~ekubica

..  - palm mute          /  - slide up to
 \  - slide down to      ~  - vibrato
 h  - hammer on          b  - bend
 p  - pull off            Suffixes for bend
                          ph - pinch harmonic
                           f - full bend    h - half bend
*  - see comment           r - release      t - tap bend
X  - percussion mute       ~ - vibrato bend
@  - slight palm mute     () - ghost note, sustained note

Tune Gtr to E


Riff A
|--------------------------------------------------------------------|
|--------------------------------------------------------------------|
|--------------------------------------------------------------------| 
|--5-/-7--(7)----X--X--5-/-7--(7)------------------------------------| 
|--5-/-7--(7)----X--X--5-/-7--(7)------------------------------------|
|--3-/-5--(5)----X--X--3-/-5--(5)------------------------------------|

Riff B
|--------------------------------------------------------------------|
|--------------------------------------------------------------------|
|--------------------------------------------------------------------| 
|--7-/-5---5-/-4---4--2----------------------------------------------| 
|--7-/-5---5-/-4---4--2----------------------------------------------|
|--5-/-3---3-/-2---2--0----------------------------------------------|

CHORUS
|--------------------------------------------------------------------|
|--------------------------------------------------------------------|
|-----5---7---------7---5--------------------------------------------|
|--5--5---7--5---5--7---5--5-----------------------------------------| 
|--5--3---5--5---5--5---3--5-----------------------------------------|


Important: The song above is NOT stored on the Chordie server. The original song is hosted at www.guitaretab.com. Chordie works as a search engine and provides on-the-fly formatting. Chordie does not index songs against artists'/composers' will. To remove this song please click here.

This song is displayed as text-only. Transposing and tuning is only available for chordpro-songs.

Login - add to songbook

Rating click stars to rate

Layout
Accuracy

SHARE PAGE  




You need to log in to post comments