Derroche

Julio Iglesias

 amam
e -------------1--------------0------------1---------------|
B ----------1--------------1------------1-----1--1---------|
G ---2-h-4---------2-h-4---------2-h-4-----------2---------|
D -----------------------------------------------2---------|
A ---0-------------0-------------0---------------0---------|
E ---------------------------------------------------------| 


 FAm
El reloj de cuerda suspendido
 FAm
el teléfono desconectado
 FAm
en una mesa dos copas de vino
 FAm
y a la noche se le fue la mano.

 amam
e -------------1--------------0------------1---------------|
B ----------1--------------1------------1-----1--1---------|
G ---2-h-4---------2-h-4---------2-h-4-----------2---------|
D -----------------------------------------------2---------|
A ---0-------------0-------------0---------------0---------|
E ---------------------------------------------------------|

 FAm
Una luz rosada imaginamos
 FAm
comenzamos por probar el vino
 FAm
con mirarnos todo lo dijimos
 FE7Am
y a la noche se le fue la mano.

 amam
e -------------1--------------0------------1---------------|
B ----------1--------------1------------1-----1--1---------|
G ---2-h-4---------2-h-4---------2-h-4-----------2---------|
D -----------------------------------------------2---------|
A ---0-------------0-------------0---------------0---------|
E ---------------------------------------------------------|


 CG
Si supiera contar todo lo que sentí
 FE7
no quedó un lugar que no anduviera en ti,
 AmE7
 besos, ternura,
 AmE7
qué derroche de amor, cuánta locura,
 AmE7
 besos, ternura,
 AmE7
qué derroche de amor cuánta locura;
 CG
que no acabe esta noche, ni esta luna de abril
 FE7
para entrar en el cielo no es preciso morir,
 AmE7
 besos, ternura,
 AmE7
qué derroche de amor, cuánta locura,
 AmE7
 besos, ternura,
 AmE7
qué derroche de amor cuánta locura.

 amam
e -------------1--------------0------------1---------------|
B ----------1--------------1------------1-----1--1---------|
G ---2-h-4---------2-h-4---------2-h-4-----------2---------|
D -----------------------------------------------2---------|
A ---0-------------0-------------0---------------0---------|
E ---------------------------------------------------------|


 FAm
Parecíamos dos irracionales
 FAm
que se iban a morir mañana,

 am
e ------------1---------|
B ---------1-----1---1--|
G --2-h-4------------2--|
D -------------------2--|
A --0----------------0--|
E ---------------------|


 FAm
derrochamos no importaba nada
 FAm
las reservas de los manantiales,
 FAm
parecíamos dos irracionales
 FE7Am
que se iban a morir mañana.

 amam
e -------------1--------------0------------1---------------|
B ----------1--------------1------------1-----1--1---------|
G ---2-h-4---------2-h-4---------2-h-4-----------2---------|
D -----------------------------------------------2---------|
A ---0-------------0-------------0---------------0---------|
E ---------------------------------------------------------|


 CG
Si pudiera contar todo lo que sentí
 FE7
no quedó un lugar que no anduviera en ti,
 AmE7
 besos, ternura,
 AmE7
qué derroche de amor, cuánta locura,

 AmE7
 besos, ternura,
 AmE7
qué derroche de amor cuánta locura;
 CG
que no acabe esta noche, ni esta luna de abril

 FE7
para entrar en el cielo no es preciso morir,
 AmE7
 besos, ternura,
 AmE7
y la noche es testigo de esta inmensa locura
 AmE7
 besos, ternura,
 AmE7
nuestra ruta de amor se convierte en ternura,
 AmE7
 besos, ternura,
 AmE7
qué derroche de amor, cuánta locura,
 AmE7
 besos, ternura ...



Am C E7 F G
variations - click chord images
Transpose chords:
Tuning:
Cool service:
View: Size:
A  A  A
Rating:
Layout:
  • Currently 2.4/5 Stars.
  • 1
  • 2
  • 3
  • 4
  • 5
 
Accuracy:
  • Currently 3.5/5 Stars.
  • 1
  • 2
  • 3
  • 4
  • 5
 
click stars to rate
Chordie recommends:
Learn to play songs at Jamplay.com with video guitar lessons
Songbook:
Login to add this song to your songbook
Support the artist
Preview/buy this song
MSN Music
Why this non-profit ad?

 
login to add comments/video/corrections