Guitar Tabs, Chords and Lyrics


Dammit   Junket










Author/Artist: junket
Title: dammit( cover of blink 182)
Album: promo cd
Transcribed by: shane
Email: smstaind214@aol.com

this is a cover of dammit by a local hudson vally band
 junket more cover songs and originals coming soon

------------------------------------------------------------------------------
------------------------------------------------------------------------------
------------------------------------------------------------------------------
---0-2---0-2---0-2---2-0------------------------------------------------------
-3----------------------------------------------------------------------------
-------3-----5-----1----------------------------------------------------------
  Do that 2 times then guitar 2 comes in while guitar 1 does the same riff x2 

------------------------------------------------------------------------------
------------------------------------------------------------------------------
---5xxx-----------------------------------------------------------------------
---5xxx-----5xxx-----7xxx-----3xxx--------------------------------------------
---3xxx-----5xxx-----7xxx-----3xxx--------------------------------------------
------------3xxx-----5xxx-----1xxx--------------------------------------------
 guitar 2 do this 2 times                                                     

------------------------------------------------------------------------------
------------------------------------------------------------------------------
---55555555-------------------------------------------------------------------
---55555555--55555555--77777777--33333333-------------------------------------
---33333333--55555555--77777777--11111111-------------------------------------
-------------33333333--55555555--11111111-------------------------------------
  then guitar 1 and 2 play guitar 2's part until the chorus which is:         

------------------------------------------------------------------------------
------------------------------------------------------------------------------
------------------------------------------------------------------------------
--2-----2-----2---0-2-----2---------------------------------------------------
----3-----3-----3-----3----3--------------------------------------------------
------3-----1-----------3----3------------------------------------------------
 this is the bridge play it x2                                                




Important: The song above is NOT stored on the Chordie server. The original song is hosted at www.guitaretab.com. Chordie works as a search engine and provides on-the-fly formatting. Chordie does not index songs against artists/composers will. To remove this song please click here.

This song is displayed as text-only. Transposing and tuning is only available for chordpro-songs.

Login - add to songbook

Rating click stars to rate

Layout
Accuracy

Jango Player

SHARE PAGE  




You need to log in to post comments