Mera Mahi

Junoon

e ------------------------------------------------------------------

B ------------------------------------------------------------------
G ------------------------------------------------------------------
D ----------------------------5---------------------------5-7-------
A --0-3-5---------0-3-4-5-6-7-----0-3-5---------0-4-5-6-7-----------
E ---------0-3-5-------------------------0-3-5----------------------
e ------------------------------------------------------------------
B ---------------------------8------------------------8-10----------
G ----5-7----------5-6-7-8-9-----5-7----------6-7-8-9---------------
D --7-------5-7--7-------------7-------5-7--7-----------------------
A --------7--------------------------7------------------------------
E ------------------------------------------------------------------
e ------------------------------------------------------------------
B ------------------------------------------------------------------
G --5--x--5--x--5--x--5--x--5--x--5--x--5--x--5--7--5h7-------------
D --5--x--5--x--5--x--5--x--5--x--5--x--5--x--5--5--5---------------
A ------------------------------------------------------------------
E ------------------------------------------------------------------

 GDA
e --3--------x-------------------x----------------------------------
B --3--x-x---3--x-x--------------5----------------------------------
G --0--x-x---2--x-x----Riff 1----5----------------------------------
D --0--------0-------------------7----------------------------------
A -------------------------------7----------------------------------
E -------------------------------5----------------------------------


Haath-on mein honge apne haath
Jhoomen gaa aa milke saath
 AmGDGAm
e --------3------------x--------------------------------------------
B --5-----3------7-----3----x--x----5-------------------------------
G --5-----4------7-----4----x--x----5-------------------------------
D --7-----5------7-----5----x--x----7-------------------------------
A ------------------------------------------------------------------
E ------------------------------------------------------------------


Bole ga - aa dil ki baat Pehli ra-at Mera mahi...
 AmCFGFCAmAmCGEm
e ------------1----x----x--------------------------x----------x-----
B --5----5----1----3----1----5----5------5----5----3---x--x---0-----
G --5----5----2----4----2----5----5------5----5----4---x--x---0-----
D --7----5----3----5----3----5----7------7----5----5---x--x---2-----
A ------------------------------------------------------------------
E ------------------------------------------------------------------


Well the rest of the song follows the same format... rather simple to play. Make sure you
play with two guitarists for the best effect... listen to the CD to figure out where both
guitars are playing.

Tabbed by: The Unaffectionate Nomster (TUN)
Any criticisms, corrections, and/or suggestions are welcome.
Please e-mail me at: nomibaby@hotmail.com.




A Am C D Em F G
variations - click chord images
Transpose chords:
Tuning:
Cool service:
View: Size:
A  A  A
Rating:
Layout:
  • Currently 4/5 Stars.
  • 1
  • 2
  • 3
  • 4
  • 5
 
Accuracy:
  • Currently 5/5 Stars.
  • 1
  • 2
  • 3
  • 4
  • 5
 
click stars to rate
Chordie recommends:
Learn to play songs at Jamplay.com with video guitar lessons
Songbook:
Login to add this song to your songbook
Support the artist
Preview/buy this song
MSN Music
Why this non-profit ad?

 
login to add comments/video/corrections