Chordie logo

New Moon Over Swift Water   Kaddisfly



Kaddisfly
Buy Our Intention...
New Moon Over Swift Water

first verse/outro

-h----------------po---------------------------------------------------|
----pm---pm---------pm-------pm-5---pm--5-------5----------------------|
---------6-----6----------------------2---------2------2---(X 4)-------|
---------4-----4----------- 9/-4--x--4--xxx--4--xx--4------------------|
---------5-----5-5^0-x----9/-4--x--4--444--4--44--4--------------------|
-4--0---x-00----------0---9/-4--x--4--444--4--44--4--------------------|

best i could do; sorry so cluttered

pre-chorus "heavy" (note: this is my "aaron's" part...kelsey plays an almost "lead" 
of ths riff higher with a dissonent note added, so if it may sound off.

----------------------------------------------------------------------|
-----------9-----------9------------------9-----------9---------------|
-----------x-----------x------4-----------x-----------x-----4/6-------| (X 2)
-----------6-----------6/2---2-----------6-----------6/2---2----------|
-0-000-0x-0-000-0----------0-000-0x-0-000-0---------------------------|
-0-000-0x-0-000-0-----4-4-0-000-0x-0-000-0-----4-4--------------------|

he x's here mean to punctually mute the strings with a quick rake...if that makes any sense

-r---------------------------------------------------------0--0------0--0-|
-----------------------------------------------14-14---12-12----12-12-----|
-----------13-13-14-14--14-14---------------------------------------------|
--11-11-11-11-11-11--11-11---------11- 11-11---11-11----11-11-------------|
-x-9--9-x9--9-x--9--9-x-9--9--x-12-12--12-12-x-12-12-x-12-12--------------|
-x-9--9-x9--9-x--9--9-x-9--9--x-12-12--12-12-x-12-12-x-12-12--------------|

above X's 2...

----------------------------14-14-------------14-14---16-16---17-17--------|
-----------14-14-12-12-----------------------------------------------------|
---------------------------------------------------------------------------|
-x11-11-11-11-11-11--11-11--------11--11-11---11-11----11-11---------------|
-x-9--9-x9--9-x--9--9-x-9--9--x-12-12--12-12-x-12-12-x-12-12---------------|
-x-9--9-x9--9-x--9--9-x-9--9--x-12-12--12-12-x-12-12-x-12-12---------------|

above X's 2...


This next riff is played in the two soft breakdowns w/ clean tone, and also in the bridge w/ distortion.

-------------------------------------------------------|
-17-17-17-19-19-19-15-15---------14--------------------|
-------------------------------------------------------|
-14-14-14-14-14-14-14-14-X's 2--12-strum this chord 12-|
-14-14-14-14-14-14-14-14---------12-times, then X's 2--|
-14-14-14-14-14-14-14-14---------12--------------------|

guitar 1 first time thru

-0000-0000----------------------------------------------------9999-7777----------------------------|
-0000-0000----------------------------------------------------0000-0000-10101010--7777-------p.m.--|
-3333-4444-4/6--6666-11-11-11-11-7-7/66666666------------------------------------------------------|
-4444-4444-2/4--4444----------------------------------------9999-9999-9-9-9-9----9999---7/2-2222---|
-4444-4444-2/4--4444-9--9--9---9---5-5/44444444-XX-9999-9999-9-9-9-9----9999-0-7/2-2222------------|
-4444-4444-2/4--4444-0--0--0---0---0-0-00000000-XX-9999-9999-9-9-9-9----9999-0-7/2-2222------------|

the only thing different the second time thru is the octaves...

--------------------------------------------------------------|
--------------------------------------------------------------|
-------------------4--4--4--4/-14--11-11-11-11-11-------------|

-------------------------------------------------------(9-11--|chrd 8 strums total)
-------------------2--2--2--2/-12--9--9---9---9---9-----------|


Important: The song above is NOT stored on the Chordie server. The original song is hosted at www.guitaretab.com. Chordie works as a search engine and provides on-the-fly formatting. Chordie does not index songs against artists/composers will. To remove this song please click here.

This song is displayed as text-only. Transposing and tuning is only available for chordpro-songs.

Login - add to songbook

Rating click stars to rate

Layout
Accuracy

SHARE PAGE  

You need to log in to post comments