Guitar Tabs, Chords and Lyrics


I Can Do It Without You  Kaiser Chiefs

   [E]                 [D]                  [A]          [G]                                                  
e|---------------------------------------------------------------------------|
B|---------------------------------------------------------------------------|
G|---------------------------------------------------------------------------|
D|-------2------2-0-4b----2-0---0-0-2---2-5b------4-2-0---0-0-2--------------|
A|-----2------------------------------0--------------------------------------|
E|-0-------------------------------------------------------------------------|


Verse 1:
[E]None of the buildings even [D]look the same,
And [A]underneath them all the [G]shops have changed,
And [E]over time I'll earn a [D]lot more praise,
[A]Stacking boxes, we are pro[G]fessionals to stay.

Chorus:
[Bm]And I can do it, I can do it,
[Bm]I can do it, I can do it with[G]out you,
[Bm]I can do it, I can do it,
[Bm]I can do it, I can do it wit[G]hout you.

Verse 2:
[E]I'm returning to the [D]North again,
[A]Everybody has to [G]talk on the train,
And [E]if you've got nothing that [D]clever to say,
[A]Nobody's listening to you [G]anyway.

CHORUS

Solo
This riff is repeated twice to the chord A, once to C and then the last extra bit is
to D. It is then played again with vocals, twice to A and twice to C before it changes to
next riff.

e|-0----------------0-2-3-3p2-0---0------------------------------------------|
B|------------------------------3----------7b-7b-7-5-3-5---------------------|
G|---------------------------------------------------------------------------|
D|---------------------------------------------------------------------------|
A|---------------------------------------------------------------------------|
E|---------------------------------------------------------------------------|


This riff is played twice after the solo, the first time hitting the note once, the
time hitting it 8 times each, then keep playing G.
e|--------------------------------------------------------------------------------|
B|--------------------------------------------------------------------------------|
G|--------------------------------------------------------------------------------|
D|-0------------------------------------------------------------------------------|
A|--------------------------------------------------------------------------------|
E|---------0-------1--------3-----------------------------------------------------|


Verse 3
[E]We convinced each other [D]nothing has changed,
[A]  Nobody else will ever [G]rock the same,
[E]  The adaptation for the [D]stage is now playing,
[A]  For your attention all the [G]names have been changed.

Chorus x2 Then the song ends on Em

Important: The song above is NOT stored on the Chordie server. The original song is hosted at www.guitaretab.com. Chordie works as a search engine and provides on-the-fly formatting. Chordie does not index songs against artists'/composers' will. To remove this song please click here.

Text color:
Chord color:
Chord grids: 
Font size:    
Page size: 

A Bm D E G
variations - click chord images

Login - add to songbook

Transpose chords

Tuning

Rating click stars to rate

Layout
Accuracy

SHARE PAGE  




You need to log in to post comments