Guitar Tabs, Chords and Lyrics


170  Kaizers Orchestra

   [Dm]                             [C]                                           
e|-------------0-1-0-----------------------------------|----------|
B|--------3--3-------3-1-------------------------------|----------|
G|---0-2-----------------2--2----------0---------------|----------|
D|-3------------------------------0-2----3--2-3-2-0--0-|-----0--0-|
A|------------------------------3----------------------|—0-3------|
E|-----------------------------------------------------|----------|


   [Dsus2]                       [C]               [Dsus2]                                 
e|----—--0-----------0-----------------------0-------|
B|—--------3-----------3-----------------------3---3-|
G|---2--------2---2---------0h2p0--------2-------2---|
D|-0------------0-------------------2--0-------------|
A|------------------------3-------3------------------|
E|---------------------------------------------------|


Banjo throughout the song:
   [Dsus2]                                  [C]                [Dsus2]           [C]          
e|-—---0-------0-------0-------0---|---------------------0-----0--0-|
B|---3---3---3---3---3---3---3---3-|-------------------3---3--3--1--|
G|-2-------2-------2-------2-------|-----0-------0---2-------2--0---|
D|---------------------------------|---2---2---2---2----------------|
A|---------------------------------|-3-------3----------------------|
E|---------------------------------|--------------------------------|


[Dm]Slapp av me komme snart igjen
[C]Oh la la, me [Dm]komme snart igjen
[Dm]Du vett me får tilstrekkelig med stipend
[C]Oh la la, til[Dm]strekkelig med stipend
[C]Nå går eg inn som [Dm]frivillig soldat
[C]Når eg går ut har eg [Dm]blitt far
[Dm]Det var kveld og det blei dag og kveld igjen
[C]Oh la la, det blei [Dm]dag og kveld igjen
[Dm]Eg skreiv brev på brev men eg fekk aldri brev igjen
[C]Oh la la, eg fekk [Dm]aldri brev igjen
[C]Et halvt år med [Dm]skudd og åpne sår
[C]Et halvt år. Herre [Dm]Gud, tiå går så seint

[Dm]Takk Gud for sanitetens personal
[C]Oh la la, sani[Dm]tetens personal
[Dm]For de syr samen rekrutt og general
[C]Oh la la, re[Dm]krutt og general
[C]Dagen kom, eg [Dm]venta på signal
[C]Eg fekk min siste ordre i frå [Dm]høgaste befal og han skreik
[Dm]170 gå å sjå om det er klart
[C]Oh la la, gå å [Dm]sjå om det er klart
[Dm]Nei general, la meg få sleppa general
[C]Oh la la, la meg få [Dm]sleppa general
[C]Det er lett for deg å senda inn en fr[Dm]ivillig soldat
[C]men kven skal ta seg av min hustru og mitt [Dm]barn?
[Dm]170 er det klart, er det klart?
[C]Oh la la, me [Dm]vente på et svar!
[Dm]170 me vente på et svar!
[C]Oh la la, er det [Dm]klart, er det klart?

Important: The song above is NOT stored on the Chordie server. The original song is hosted at www.guitaretab.com. Chordie works as a search engine and provides on-the-fly formatting. Chordie does not index songs against artists'/composers' will. To remove this song please click here.

Text color:
Chord color:
Chord grids: 
Font size:    
Page size: 

C Dm Dsus2
variations - click chord images

Login - add to songbook

Transpose chords

Tuning

Rating click stars to rate

Layout
Accuracy

SHARE PAGE  




You need to log in to post comments