Guitar Tabs, Chords and Lyrics


Awake In A Dream  Kalan Porter

e-------6--------6---------1------3------1------3----------------------|


B-------6--------7---------1------4------1------4----------------------|


G-------7--------8---------2------5------2------5----------------------|

D-------8--------8---------3------5------3------5----------------------|
A-------8--------6---------3------3------3------3----------------------|
E-------6------------------1-------------1-----------------------------|
        [Bb]         [Eb]          [F]      [Cm]   [F] [Cm] 
Chorus
e---------------------------33333333--5--66666666--------------------3333333-|
B---------------------------44444444--8--77777777--------------------4444444-|
G---------77777777-22222222-55555555--7--88888888--77777777-22222222-5555555-|
D-----5---88888888-33333333-55555555--7--88888888--88888888-33333333-5555555-|
A-----5---88888888-33333333-33333333--5--66666666--88888888-33333333-3333333-|
E-----3---66666666-11111111------------------------66666666-11111111---------|

     [G5]        [Bb]        [F]         [Cm]      [D] [Eb] [Bb] [F] [Cm] 
e3--5--66666666------------------------------------6-------1--------------|
B4--8--77777777------------------------------------6-------1--------------|
G5--7--88888888--33333333-55555555-888888888~~-----7-------2--------------|
D5--7--88888888--33333333-55555555-888888888~~-----8-------3--------------|
A3--5--66666666--11111111-33333333-666666666~~-----8-------3--------------|
E--------------------------------------------------6-------1--------------|

[Cm]    [D]      [Eb]         [Bb]   [5]       [C5]       [Eb] [5] [Bb] [F] 

2nd Verse
e-------6--6--6--------6--------6--------6--------11111111-33333333-11111111-|
B-------6--6--6--------7--------6--------7--------11111111-44444444-11111111-|
G-------7--7--7--------8--------7--------8--------22222222-55555555-22222222-|
D-------8--8--8--------8--------8--------8--------33333333-55555555-33333333-|
A-------8--8--8--------6--------8--------6--------33333333-33333333-33333333-|
E-------6--6--6-----------------6-----------------11111111----------11111111-|

       [Bb]   [Bb]   [Bb]         [Eb]         [Bb]     [Eb] [F] [Cm] [F] 
e--3~~----------------|
B--4~~----------------|
G--5~~----------------|
D--5~~----------------|
A--3~~----------------|
E---------------------|

   [Cm]                                  
Then it goes back into the chorus

Bridge
e---77777777----------88888888---------------------------------------------|
B---77777777-88888888-88888888---8-7-5--55555555-77777777-888888888~~------|
G---77777777-88888888-77777777---8-7-5--55555555-77777777-888888888~~------|
D---77777777-88888888-88888888---8-7-5--55555555-77777777-888888888~~------|
A---55555555-66666666-88888888---6-5-3--33333333-55555555-666666666~~------|
E---------------------66666666---------------------------------------------|

      [D6]          [Eb]         [Bb]      [Eb]   [D6]  [C] [C] [D6] [Eb] 
theres a little part right before the third chorus
e-----6--------1------3------1~~-----------|
B-----6--------1------4------1~~-----------|
G-----7--------2------5------2~~-----------|
D-----8--------3------5------3~~-----------|
A-----8--------3------3------3~~-----------|
E-----6--------1-------------1~~-----------|

     [Bb]          [F]      [Cm]        [F]        
Third Chorus/Key Change
e---------88888888        -33333333-55555555-------------        -88888888---|
B---------88888888        -33333333-66666666--9--1010101010101010-88888888---|
G---------99999999        -44444444-77777777--9--1010101010101010-99999999---|
D-----5---1010101010101010-55555555-77777777--9--1010101010101010-1010101010-|
A-----5---1010101010101010-55555555-55555555--7--88888888        -1010101010-|
E-----3---88888888        -33333333--------------                -88888888---|

     [G5]        [C]                  [G]     [Dm] [E] [F] [C] 
e      -33333333-55555555-------------        -------------------------------|
B      -33333333-66666666--9--1010101010101010--55555555-77777777-1010101010-|
G      -44444444-77777777--9--1010101010101010--55555555-77777777-1010101010-|
D101010-55555555-77777777--9--1010101010101010--55555555-77777777-1010101010-|
A101010-55555555-55555555--7--88888888        --33333333-55555555-888888888--|
E      -33333333----------------------        -------------------------------|

  [C]         [G]         [Dm]       [E]         [F] [C] [D] [F] 
e        ~~--------------|
B10101010~~--------------|
G10101010~~--------------|
D10101010~~--------------|
A        ~~--------------|
E        ~~--------------|

F<---THIS IS THE NOTE FROM THE LINE ABOVE (ENDING IT)

Outro
e-------8 -----3-----0~~----------------------|
B-------8 -----3-----1~~----------------------|
G-------9 -----4-----0~~----------------------|
D-------10-----5-----2~~----------------------|
A-------10-----5-----3~~----------------------|
E-------8 -----3-----3~~----------------------|

        [C]       [G]     [C/G]                 
So...Have Fun.Oh, and if u want to solo over it or add a solo when you play it...

Solo (If You Want) Pentatonic in the third fret
e------------------3-6---------|
B---------------3-6------------|
G------------3-5---------------|
D---------3-5------------------|
A------3-5---------------------|
E----6-------------------------|


That's it. Have Fun. It's A Great Song. This is my first tab so please rate!!! Peace Out Brothers!

Important: The song above is NOT stored on the Chordie server. The original song is hosted at www.guitaretab.com. Chordie works as a search engine and provides on-the-fly formatting. Chordie does not index songs against artists'/composers' will. To remove this song please click here.

Text color:
Chord color:
Chord grids: 
Font size:    
Page size: 

Bb C C/G C5 Cm D D6 Dm E Eb F G G5
variations - click chord images

Login - add to songbook

Transpose chords

Tuning

Rating click stars to rate

Layout
Accuracy

SHARE PAGE  




You need to log in to post comments