Guitar Tabs, Chords and Lyrics


Kanya Kanyang Kuha   Kamikazee



yo!!! Ako si Donne Rich(16,m,NY)... Tinama ko lng ung ibng part ni Ryan Mangondo...

Intro prt 1:                       
Both Gtr.
e|----------|                          
B|--0-0-0---|                          
G|--0-0-0---|                          
D|----------|                          
A|----------|                         
E|----------|
    . . .

Intro & Chorus prt 2:
Gtr.1
e|----------------------------------------|
B|----------------------------------------|
G|----------------------------------------|
D|----------------------------------------|
A|-----------6-5---------6-5-----666555---|
E|--000000000-0-000000000-0-00000444333---|
    ......... . ......... . .....

Verse 1:
Sir,baka pwede nating...
Gtr.1
e|---------------|
B|---------------|
G|---------------| 2x Then 
D|---------------|
A|---------------|
E|-0-1-3-0-1-0---|                       
                                      
e|------------------------------       ------------------------------------|
B|------------------------------ Ito   ------------------------------------|
G|------------------------------ na    ------------------------------------|
D|-------------0-2-3------------ yung  -------------0-2-4------------------|
A|-------0-2-4---------0-0-0-0-- may   -------0-2-4--------00-8\1-00-8\1---|
E|-0-1-3------------------------ slide -0-1-3------------------------------|
                      . . . .

Gtr.2(Fill Lead)
e|--15-15-15-15---|
B|----------------|
G|----------------|
D|----------------|
A|----------------|
E|----------------|

Pre-Chorus:
Pag-tangis ng ating bayan...
e|------------------       ----------|
B|------------------ Many  --0-0-0---|
G|------------------ Times --0-0-0---|
D|------------------ Then  ----------|
A|------------------       ----------|
E|-2-1-0-2-4-2------       ----------| 
                             . . .
Chorus:
Repeat intro part 2

Verse 2:
Repeat verse 1

Repeat Pre-Chorus
Repeat Chorus

Breakdown:
e|---------       ---------------------|         
B|-0~---0~- Then  ---------------------|    Then 
G|-0~---0~- Pick  ---------------------| 2x Pick
D|-0~---0~- Slide ---------------------|    Slide
A|-0~---0~-       ---------------------|         
E|---------       -0000-0000-0000-0000-|


e|---------------------------------| 
B|---------------------------------|
G|---------------------------------| 
D----------------------------------| 2x 
A|---------------------------------| 
E|-0000-00-0000-00-0000-00-0000-00-|
   .... .. .... .. .... .. .... ..

Breakdown 2:
e|--------------------| 
B|--------------------|
G|--------------------| 
D|--------------------| 4x 
A|--------------------| 
E|-000-000----000-000-|
   ... ...    ... ...

Gtr. 1:                       Gtr. 2:Do this evertime gtr. 1 do a set

e|------------------------      ------------     ---------------|
B|------------------------   1st------------  2nd-11t-44t3t2t---|
G|------------------------      -11t44t3t2t-     ---------------|
D|------------------------ 4x   ------------2x   ---------------|2x
A|------------------------      ------------     ---------------|
E|-0000-0000----0000-0000-      ------------     ---------------|
   .... ....    .... ....

Masasagip ka ba....
e|------------------------|
B|------------------------|
G|------------------------|
D|------------------------|4x
A|------------------------|
E|-0000-0000----0000-0000-|
   .... ....    .... ....
Breakdown 3:(end)
Pick Slide
e|--------------       ----------|
B|-------------- Many  --0-0-0---|
G|-------------- Times --0-0-0---|
D|-------------- Then  ----------|
A|--------------       ----------|
E|-2h1--0-2-4-2-       ----------|
                         . . . 


Repeat Chorus

Outro:
e|------------------------------------|
B|------------------------------------|
G|------------------------------------|
D|------------------------------------|
A|-----------6-5-6-8-6-5-6-8-666555---|
E|--000000000-0-0-0-0-0-0-0--444333---|
    ......... . . . . . . 



Important: The song above is NOT stored on the Chordie server. The original song is hosted at www.guitaretab.com. Chordie works as a search engine and provides on-the-fly formatting. Chordie does not index songs against artists'/composers' will. To remove this song please click here.

This song is displayed as text-only. Transposing and tuning is only available for chordpro-songs.

Login - add to songbook

Rating click stars to rate

Layout
Accuracy

SHARE PAGE  




You need to log in to post comments