Where Do I Go Now

Kane

 C#sus2Aadd9
e------------------------0-----0------0--|
B------------------------0-----0------0--|
G--6---6---6--4h6p4------6-----6------6--|
D--6---6---6--------6p4--7-----7------7--|
A--4---4---4-------------7-----7------7--|
E--4---4---4-------------5-----5------5--|


 Verse
 C#sus2Aadd9
    With my head against the window
 C#sus2Aadd9
    Seal the letter which I did not sign
 C#sus2Aadd9F#m
    Should I wait for you for one last time

 C#sus2Aadd9
    There's no end and no beginning
 C#sus2Aadd9
    Every word comes like a silent scream
 C#sus2Aadd9F#m
    She told all the things I did not see

 Pre-cborus
 F#mAEB
 How could I know that she would lift me up to let me down
 F#mAEE
 How could I know that you are all that really matters now
 X
F#m         A         E          B         D            
How could I know that forever wasn't quite so long

 Cborus
 AE
 So where do I go_______ now
 Bsus2D
 Where do I go__________ yeah, yeah
 AEF#EF#DF#EF#E
 Where do I go_______ yeah                          

After chorus riff
e---------5--5--5----------7--7--7--|
B---------5--5--5----------7--7--7--|
G---------7--7--7----------9--9--9--|
D---------7--7--7----------9--9--9--|
A--4-2-4--5--5--5---4-2-4--7--7--7--|
E--2-0-2------------2-0-2-----------|


 Verse
 C#sus2Aadd9
    She says nothing's everlasting
 C#sus2Aadd9
    I'm so confused, I don't know what to do
 C#sus2Aadd9F#m
  What to say  I forgive you but I can not stay

 Pre-cborus
 F#mAEB
 How could I know I thought you'd wait for me but I was wrong
 F#mAEE
 How could I know that you are all that really matters now
 F#mAEBD
 How could I know that forever wasn't quite so long

 Cborus
 AE
 So where do I go_______ now
 Bsus2D
 Where do I go__________ yeah, yeah
 AEF#EF#DF#EF#E
 Where do I go_______ yeah                          

Solo riff1 4x
e------------------------|
B------------------------|
G--6-7-6-7-6-x-6-6-7-6/9-|
D------------------------|
A--4-5-4-5-4-0-4-4-5-4/7-|
E------------------------|


 AEBD

 Cborus
 AE
 So where do I go_______ now
 Bsus2D
 Where do I go__________ yeah, yeah
 AE
 Where do I go_______ yeah  I said where do I go

 AE
 So where do I go_______ now
 Bsus2D
 Where do I go__________ yeah, yeah
 AEF#EF#DF#EF#E
 Where do I go_______ yeah                          

 Outro
 C#sus2Aadd9
    She says nothing's everlasting

Chords:
C#sus2 x46644
Aadd9 577600
 F#m244222
 A       x02220
E 022100
B x24442
D xx0232
Bsus2 x24422
F# 24xxxx


A Aadd9 B Bsus2 C#sus2 D E F# F#m
variations - click chord images
Transpose chords:
Tuning:
Cool service:
View: Size:
A  A  A
Rating:
Layout:
  • Currently 3.3/5 Stars.
  • 1
  • 2
  • 3
  • 4
  • 5
 
Accuracy:
  • Currently 2.8/5 Stars.
  • 1
  • 2
  • 3
  • 4
  • 5
 
click stars to rate
Chordie recommends:
Get acoustic guitar lessons and electric guitar lessons at JamPlay.com
Songbook:
Login to add this song to your songbook
Support the artist
Preview/buy this song
MSN Music
Why this non-profit ad?

 
login to add comments/video/corrections