Chordie logo


Evidence   Katatonia



Artist: Katatonia
Song: Evidence
Album: Viva Emptiness
Year: 2003


Tune guitar to D:

Clean sound with flanger,echo and lots of other effects.
1-----------3------------3---------------3-----1---3---------3-----|
2----------3-3----------3-3-----------3-----1-----3-3-------3-3----|
3--------3-----3------3----3--------3-----2-----3----3-----3---3---|
4------5--------5----5------5-----5-----3-----5-------5--5------5--|
5------------------5-----------------------------------------------|
6---3--------------------------3----1------3-----------------------|

---------3----6-----3-------------3---------------3---1----3-------3-----|
-------3----6-----3---3----------3--3----------3----1-----3-3-----3-3----|
-----3----7-----3-------3------3-----3-------3----2------3---3---3---3---|
---5----8-----5-----------5--5---------5---5----3------5------5-5-----5--|
----------------------------5----------------------------------5---------|
-3----6-----3----------------------------3---1------3--------------------|


Second guitar start in 0.44
1-----------------------------------------------------|
2----3~~-6~~-----3~~----6~~----3~~--------------------|
3-----------------------------------5~~---------------|

Chorus (Distorted Guitar)
4----5---5---5---5-5---5---5-3-5---5---5-5---5-8-5---5---5-5---5-3---5---5-5---|
5----5---5---5---5-5---5---5-3-5---5---5-5---5-8-5---5---5-5---5-3---5---5-5---|
6----3---3---3---3-3---3---3-1-3---3---3-3---3-6-3---3---3-3---3-1---3---3-3---|

Bridge
1--------3------------3------------3-------------3----------|
2------------3-----------3-------------3-------------3------|
3-----3-----------3------------3------------2---------------|
4-----------------------------------------------------------|
5-----------------------------------------------------------|
6--3-----------3-----------3------------1-------------------|

Guitar 2 Distorted (End Riff)
4--5---5---5---3--|
5--5---5---5---3--|


Important: The song above is NOT stored on the Chordie server. The original song is hosted at www.guitaretab.com. Chordie works as a search engine and provides on-the-fly formatting. Chordie does not index songs against artists/composers will. To remove this song please click here.

This song is displayed as text-only. Transposing and tuning is only available for chordpro-songs.

Login - add to songbook

Rating click stars to rate

Layout
Accuracy

SHARE PAGE  




You need to log in to post comments