Guitar Tabs, Chords and Lyrics


Velvet Thorns Of Drynwhyl   Katatonia



-------------------------------------------------------------------------------
		  Katatonia - Velvet Thorns (Of Drynwhyl)
-------------------------------------------------------------------------------
Tabbed by: dykarN
Tuning: Standard (= EADGBe)

This is my first tab ever. It's a really long song and I just love it. I haven't
found a guitar tab for it anywhere on the net so I decided to try to tab it out
myself. Anyways, here's the intro of the song.

e|---------------------------------------------------------------------------|
B|---------------------------------------------------------------------------|
G|---------------------------------------------------------------------------|x2
D|---------------------------------------------------------------------------|
A|--10--/15-14---10--12p10-9--7/9-------10--/15-14---10--12p10--/14--9-------|
E|---------------------------------------------------------------------------|

e|---------------------------------------------------------------------------|
B|---------------------------------------------------------------------------|
G|---------------------------------------------------------------------------|
D|---------------7-9/10-----------------------7-9/10-------------------------|
A|--10--9\7--10----------10--12p10--9\7---10---------------------------------|
E|---------------------------------------------------------------------------|

e|---------------------------------------------------------------------------|
B|---------------------------------------------------------------------------|
G|---------------------------------------------------------------------------|
D|---------------------------------------------------------------------------|
A|--10--/15-14---10--12p10-9--7/9-------10--/15-14---10--12p10--9--7/9-------|
E|---------------------------------------------------------------------------|



e|---------------------------------------------------------------------------|
B|---------------------------------------------------------------------------|
G|-----------------(repeat x3)-----------------------------------------------|x2
D|--7h8-7h8-7h8-10--------------7h8-7h8--7\5---------------------------------|
A|--------------------------------------------8------------------------------|
E|---------------------------------------------------------------------------|



| /  slide up
| \  slide down
| h  hammer-on
| p  pull-off
| ~  vibrato
| +  harmonic
| x  Mute note


Important: The song above is NOT stored on the Chordie server. The original song is hosted at www.guitaretab.com. Chordie works as a search engine and provides on-the-fly formatting. Chordie does not index songs against artists'/composers' will. To remove this song please click here.

This song is displayed as text-only. Transposing and tuning is only available for chordpro-songs.

Login - add to songbook

Rating click stars to rate

Layout
Accuracy

SHARE PAGE  




You need to log in to post comments