Chordie logo

Feel It Too   Kate Alexa



-------------------------------------------------------------------------------
			FEEL IT TOO - Kate Alexa
-------------------------------------------------------------------------------

Tabbed by: Arnau Salisi Foguet
Email: arny_cat@hotmail.com


Verse:
e|------------------|
B|------------------|
G|------77----------|
D|--77--77--55--22--|...x7
A|--77--55--55--22--|
E|--55------33--00--|

e|----------------------|
B|----------------------|
G|----------------------|
D|--33333333--55555555--|
A|--33333333--55555555--|
E|--11111111--33333333--|


CHORUS:
e|-----------------------------------------|
B|-----------------------------------------|
G|------------7-7-7-7-------------9-9-9-9--|
D|--7-7-7-7---7-7-7-7---5-5-5-5---9-9-9-9--|...x3
A|--7-7-7-7---5-5-5-5---5-5-5-5---7-7-7-7--|
E|--5-5-5-5-------------3-3-3-3------------|
        x         x         x         x    

e|----------------------|
B|----------------------|
G|----------------------|
D|--33333333--55555555--|
A|--33333333--55555555--|
E|--11111111--33333333--|


Post chorus:
e|------------------|
B|------------------|
G|------77----------|
D|--77--77--55--22--|...x2
A|--77--55--55--22--|
E|--55------33--00--|


Verse:
e|------------------|
B|------------------|
G|------77----------|
D|--77--77--55--22--|...x3
A|--77--55--55--22--|
E|--55------33--00--| 

e|------------------------------|
B|------------------------------|
G|------------77-7777-----------|
D|--77-7777---77-7777---55552---|
A|--77-7777---55-5555---55552---|
E|--55-5555-------------33330---|
       xxxx      xxxx            


e|--------------------------------------------------------------------|
B|--------------------------------------------------------------------|
G|--------------------------------------------------------------------|
D|--------------------------------------------------------------------|...x2
A|----------5-5-5-5---------------------------5-5-5-5-----------------|
E|--5-5-5-5---------3-3-3-3-0-0-0-0---5-5-5-5---------3-3-3-3-0-0-0-0-|

e|--------------------------------------|
B|--------------------------------------|
G|--------------------------------------|
D|--------------------------------------|
A|--------------------------------------|
E|--1-1-1-1-1-1-1-1-1-3-3-3-3-3-3-3-3---|


CHORUS:
e|-----------------------------------------|
B|-----------------------------------------|
G|------------7-7-7-7-------------9-9-9-9--|
D|--7-7-7-7---7-7-7-7---5-5-5-5---9-9-9-9--|...x3
A|--7-7-7-7---5-5-5-5---5-5-5-5---7-7-7-7--|
E|--5-5-5-5-------------3-3-3-3------------|
        x         x         x         x    

e|----------------------|
B|----------------------|
G|----------------------|
D|--33333333--55555555--|
A|--33333333--55555555--|
E|--11111111--33333333--|

Bridge:
e|-------------------------------------------------------|
B|-------------------------------------------------------|
G|-------------------------------------------------------|
D|-------------------------------------------------------|
A|-------------------------------------------------------|
E|-5555--7777--8888--10101010--5555-7777-8888-10101010---|

e|------------------------------------------------------------|
B|------------------------------------------------------------|
G|------------------------------------------------------------|
D|------------------------------------------------------------|
A|------------------------------------------------------------|
E|--5555-7777-8888-10101010-12121212121212121212121212121212--|



Pre chorus:
e|------------------|
B|------------------|

G|------77----------|
D|--77--77--55--22--|...x3
A|--77--55--55--22--|
E|--55------33--00--|

e|----------------------|
B|----------------------|
G|----------------------|
D|--33333333--55555555--|
A|--33333333--55555555--|
E|--11111111--33333333--|

CHORUS:
e|-----------------------------------------|
B|-----------------------------------------|
G|------------7-7-7-7-------------9-9-9-9--|
D|--7-7-7-7---7-7-7-7---5-5-5-5---9-9-9-9--|...x3
A|--7-7-7-7---5-5-5-5---5-5-5-5---7-7-7-7--|
E|--5-5-5-5-------------3-3-3-3------------|
        x         x         x         x    

e|----------------------|
B|----------------------|
G|----------------------|
D|--33333333--55555555--|
A|--33333333--55555555--|
E|--11111111--33333333--|


e|------------------|
B|------------------|
G|------77----------|
D|--77--77--55--22--|...x3
A|--77--55--55--22--|
E|--55------33--00--|

Finale:
e|---------------------------|
B|---------------------------|
G|---------------------------|
D|--33333333--55555555--7~---|
A|--33333333--55555555--7~---|
E|--11111111--33333333--5~---|


| /  slide up
| \  slide down
| h  hammer-on
| p  pull-off
| ~  vibrato
| +  harmonic
| x  Mute note


Important: The song above is NOT stored on the Chordie server. The original song is hosted at www.guitaretab.com. Chordie works as a search engine and provides on-the-fly formatting. Chordie does not index songs against artists/composers will. To remove this song please click here.

This song is displayed as text-only. Transposing and tuning is only available for chordpro-songs.

Login - add to songbook

Rating click stars to rate

Layout
Accuracy

SHARE PAGE  



You need to log in to post comments