Guitar Tabs, Chords and Lyrics


Sakura Kiss   Kawabe Chieco



hey zero, this is the song u wanted me to tab right? ^^ 

this is my first tab, so i guess i wont be surprised if its that bad. ^^;;

please visit animetribe.com

add me there :D JigokuShounen15



Intro:

E|--------------------------------------|
B|--------------------------------------|
G|--11/9--11/7--11/9--11/7~-11-11-9-----|
D|---x/x---x/x---x/x---x/x~--x--x-x-----| x2
A|---9/7---9/5---9/7---9/5~--9--9-7-----|
E|--------------------------------------|

then in the last part, do this


E|-----------------------------|
B|-----------------------------|
G|--11/9\11--14----------------|
D|---x/x\x----x----------------|
A|---9/7\9---12----------------|
E|-----------------------------|


or if thats too complicated for you, try this instead


E|-------------------------|
B|-------------------------|
G|--11-9-11-7~--1111-9-----| 
D|-------------------------| x2
A|-------------------------|
E|-------------------------|

then do this

E|-------------------------|
B|-------------------------|
G|-------------------------|
D|---11-9-11-11-14---------|
A|-------------------------|
E|-------------------------|


Verse:

  Palm Muted
E|------------------------------|
B|------------------------------|
G|---77777----------------------|
D|---77777-77777-55555-77777----| x2
A|---55555-77777-55555-77777----|
E|---------55555-33333-55555----|
     ..... ..... ..... .....


Pre Chorus:

 suki ni natteku  riyuu wa minna chigauyone kedo
E|---------|      |----------| |------|
B|---------|      |----------| |------|
G|---------|      |-------5~-| |------|
D|--9~-----|      |--5~---5~-| |-7----|
A|--9~-----|      |--5~---3~-| |-7----|
E|--7~-----|      |--3~------| |-5----|


and just before the chorus i think theres a part like this


E|---/10-9-7-10-8-7--------|
B|------------------6~-----|
G|-------------------------|
D|-------------------------|
A|-------------------------|
E|-------------------------|



Chorus: Maybe your my love

E|----------------------------------------------------|
B|----------------------------------------------------|
G|---7777777------------------------------------------|
D|---7777777-----555555--99-777-55555-77777-----------| x2
A|---5555555-5-0-555555--99-777-55555-77777-----------|
E|---------------333333--77-555-33333-55555-----------|


Continued....

  hanasaku otome no bigaku
E|---------------|
B|---------------|
G|--5~-----7x----|
D|--5~-5~--7x----|
A|--3~-5~--5x----|
E|-----3~--------|

then repeat the intro...


Important: The song above is NOT stored on the Chordie server. The original song is hosted at www.guitaretab.com. Chordie works as a search engine and provides on-the-fly formatting. Chordie does not index songs against artists/composers will. To remove this song please click here.

This song is displayed as text-only. Transposing and tuning is only available for chordpro-songs.

Login - add to songbook

Rating click stars to rate

Layout
Accuracy

SHARE PAGE  




You need to log in to post comments