Guitar Tabs, Chords and Lyrics


Gate Crashers Suck  Keller Williams

E---------------------------------------------------------|


B---------------------------------------------------------|


G-------------3-------------------------------------------|

D-------3-----3-------------------------------------------|
A-------3—--0h1-------------------------------------------|
E-------1-----X-------------------------------------------|
E--------1----|-------3--|------------1---|--2---------|
B--------1----|-------5--|------------3---|--3---------|
G--------2----|--5----5--|-3----3-----3---|--2-----7---|
D--3-----3----|--5----5--|-3----3-----3---|--0-----7---|
A--3-----3----|--3----3--|-1--0h1-----1---|--------5---|
E--1-----1----|--X----X--|-X----X-----X---|--------X---|
[F]I was there at [C]Deer Creek back in[A#] nineteen ninety f[F]ive
[F]I think it was[C] June maybe Ju[A#]ly
But Jerry was s[C]till alive
a#(hit on) C
All the kids in that parking lot
They [F]tore th[C]at fence d[D]own
[A#]And I blamed them
For the s[C]econd show getting cancelled.

a#(hit on) C
I really wanted to go
I [F]saved up [C]all of my [D]dough
I didn't [A#]go to any other s[C]hows
And I [F]got my [C]tickets [D]M.O.
And I [A#]never missed a Deer Creek s[C]how
From e[F]ighty-nine to [C]ninety-[D]five
I was [A#]happy just to be a[A#]live
On my [C]yearly Indiana vacation

a#(hit on) C F C
But that was cut short by a bunch of jealous,
[D]party bashin', buzz [A#]thrashin', gate c[C]rashin', stinky [F]bastards
And if you're [A#]one of them   [A#]      [A#]
C (strum softly and keep building up for the finale)
And you hear this song


THE END: (USE THE BAR CHORDS IF YOU WANT)


Fuck [F]you    [C]       [A#]
You c[C]ock sucking mother[F]fucker   [C]       [A#]        [C]
Fuck [F]you    [C]       [A#]
You c[C]ock sucking mother[F]fucker   [C]       [A#]        [C]
NO GUITAR: (AND IN YOUR DEEPEST VOICE)

Fuck you

You cock sucking motherfucker


(A little higher voice):

Fuck you

You cock sucking motherfucker

(High voice)

Fuck you

You cock sucking motherfucker


GUITAR COMES BACK:


Fuck [F]you    [C]       [A#]
You c[C]ock sucking mother[F]fucker   [C]       [A#]        [C]
Fuck [F]you    [C]       [A#]
You c[C]ock sucking mother[F]fucker   [C]       [A#]        [C]
CLOSE (Pick THE CHORDS):


Fuck [F]you    [C]       [A#]
You c[C]ock sucking mother[F]fucker   [C]       [A#]        [C]
I HOPE YOU GUYS ENJOY.

Important: The song above is NOT stored on the Chordie server. The original song is hosted at www.guitaretab.com. Chordie works as a search engine and provides on-the-fly formatting. Chordie does not index songs against artists'/composers' will. To remove this song please click here.

Text color:
Chord color:
Chord grids: 
Font size:    
Page size: 

A# C D F
variations - click chord images

Login - add to songbook

Transpose chords

Tuning

Rating click stars to rate

Layout
Accuracy

SHARE PAGE  




You need to log in to post comments