Chordie logo

Ready   Kelly Clarkson



-- Kelly Clarkson – Ready --

standard tuning EADGBE

tabbed by x-tasha-x

Intro: 
guitar 1
E||--------------------------|  
B||--------------------------|  
G||-21-21-20-20-18-18-16-16--|x2
D||--------------------------|  
A||--------------------------|  
E||--------------------------|  

Verse 1: 0:09
guitar 2
E||-----------------|  |------------------------------|  |------------| 
B||-----------------|  |------------------------------|  |------------|  
G||-9-9-8-8-6-6-4-4-|  |------6666------6666----------|  |-9--8--6--4-| 
D||-9-9-8-8-6-6-4-4-|x4|-6666-6666-6666-6666-44444444-|x1|-9--8--6--4-|x4  
A||-7-7-6-6-4-4-2-2-|  |-6666-4444-6666-4444-44444444-|  |-7--6--4--2-| 
E||-----------------|  |-4444------4444------22222222-|  |------------|  

guitar 1
E||--------------------------|  |--------------------------|
B||--------------------------|  |-------------21-21-19-19--|
G||-21-21-20-20-18-18-16-16--|x3|-21-21-20-20--------------|
D||--------------------------|  |--------------------------|
A||--------------------------|  |--------------------------|
E||--------------------------|  |--------------------------|

E||--------------------------|  |-21-21-21-21-21-21-21-21-|
B||-19-19-19-19-21-21-21-21--|  |-------------------------|
G||--------------------------|x2|-------------------------|
D||--------------------------|  |-------------------------|
A||--------------------------|  |-------------------------|
E||--------------------------|  |-------------------------|

E||--------------------------|  |--------------------------|
B||--------------------------|  |-------------21-21-19-19--|
G||-21-21-20-20-18-18-16-16--|x3|-21-21-20-20--------------|
D||--------------------------|  |--------------------------|
A||--------------------------|  |--------------------------|
E||--------------------------|  |--------------------------|


Pre chorus: 0:52
guitar 2
E||------------------------| 
B||------------------------|  
G||------6666------6666----|
D||-6666-6666-6666-6666-4--|
A||-6666-4444-6666-4444-4--|  
E||-4444------4444------2--| 
 
guitar 1
E||--------------------------|  |-21-|
B||-19-19-19-19-21-21-21-21--|  |----|
G||--------------------------|x2|----|
D||--------------------------|  |----|
A||--------------------------|  |----|
E||--------------------------|  |----|


Chorus: 1:03
guitar 1 and 2
E||------------------|  
B||------------------|
G||-9-9-8-8-6-6-4-4--|
D||-9-9-8-8-6-6-4-4--|x4 
A||-7-7-6-6-4-4-2-2--|  
E||------------------|  


Verse 2: 1:19
guitar 2
E||------------|  
B||------------|  
G||-9--8--6--4-|  
D||-9--8--6--4-|x4 
A||-7--6--4--2-| 
E||------------| 

guitar 1
E||--------------------------|  |-----------------------------|
B||--------------------------|  |-------------21-21-19-19--19-|
G||-21-21-20-20-18-18-16-16--|x3|-21-21-20-20-----------------|
D||--------------------------|  |-----------------------------|
A||--------------------------|  |-----------------------------|
E||--------------------------|  |-----------------------------|


Pre chorus: 1:35 
guitar 2
E||------------------------| 
B||------------------------|  
G||------6666------6666----|
D||-6666-6666-6666-6666-4--|
A||-6666-4444-6666-4444-4--|  
E||-4444------4444------2--| 
 
guitar 1
E||--------------------------|  |-21-21-21-21-21-21-21-21-|
B||-19-19-19-19-21-21-21-21--|  |-------------------------|
G||--------------------------|x2|-------------------------|
D||--------------------------|  |-------------------------|

A||--------------------------|  |-------------------------|
E||--------------------------|  |-------------------------|


Chorus: 1:47 
guitar 1 and 2
E||------------------|  
B||------------------|
G||-9-9-8-8-6-6-4-4--|
D||-9-9-8-8-6-6-4-4--|x4 
A||-7-7-6-6-4-4-2-2--|  
E||------------------|  


Bridge: 2:02
guitar 2 
E||--------------|   |----------|  
B||--------------|   |----------|  
G||--------------|   |-9--8--6--|  
D||-666-999-444--|x4 |-9--8--6--|x2  
A||-666-999-444--|   |-7--6--4--| 
E||-444-777-222--|   |----------|  

guitar 1
E||-------------|   |-----------------| 
B||-------------|   |-----------------| 
G||--9--8--6--6-|   |-21-21-20-20-18--|x2 
D||--9--8--6--6-|x4 |-----------------|   
A||--7--6--4--4-|   |-----------------| 
E||-------------|   |-----------------| 


end with chorus: 2:26
guitar 1 and 2
E||------------------|  
B||------------------|
G||-9-9-8-8-6-6-4-4--|
D||-9-9-8-8-6-6-4-4--|x8 
A||-7-7-6-6-4-4-2-2--|  
E||------------------|  



Important: The song above is NOT stored on the Chordie server. The original song is hosted at www.guitaretab.com. Chordie works as a search engine and provides on-the-fly formatting. Chordie does not index songs against artists/composers will. To remove this song please click here.

This song is displayed as text-only. Transposing and tuning is only available for chordpro-songs.

Login - add to songbook

Rating click stars to rate

Layout
Accuracy

SHARE PAGE  



You need to log in to post comments