Guitar Tabs, Chords and Lyrics


Save You   Kelly Clarkson



-- Kelly Clarkson – save you --

standard tuning EADGBE

tabbed by x-tasha-x

Intro x2
E||-------------------------------------|
B||-------------------------------------|
G||--9-9-9-9-8-8-9p8--6-6-6-6-4-4-4-4---| 
D||-----------------9----------------2--|
A||-7-7-7-7-6-6-6----4-4-4-4-2-2-2-2----|
E||-------------------------------------|


Verse: x4
E||-------------------------------------|
B||-------------------------------------|
G||--9-9-9-9-8-8-9 8--6-6-6-6-4-4-4-4---| 
D||-----------------9----------------4--|
A||-7-7-7-7-6-6-6----4-4-4-4-2-2-2-2----|
E||-------------------------------------|


Pre chorus: x2
E||----------------------|
B||----------------------|
G||--9----8----6----4----| 
D||--9----8----6----4----|
A||--7----6----4----2----|
E||----------------------|


Chorus: 
E||----------------------|
B||----------------------|
G||-9999-8888-6666-4444--| 
D||-9999-8888-6666-4444--|
A||-7777-6666-4444-2222--|
E||----------------------|


Verse 2(same as verse 1)

Pre chorus 

Chorus x4

Bridge:
E||----------------------------------------------------|
B||----------------------------------------------------|
G||-4---------9---------9-----------9---------9---8----| 
D||-4----7----9----4----9------7----9----4----9---8----|
A||-2----7----7----4----7------7----7----4----7---6----|
E||------5---------2-----------5---------2-------------|


end with chorus x5


| p  pull-off



Important: The song above is NOT stored on the Chordie server. The original song is hosted at www.guitaretab.com. Chordie works as a search engine and provides on-the-fly formatting. Chordie does not index songs against artists/composers will. To remove this song please click here.

This song is displayed as text-only. Transposing and tuning is only available for chordpro-songs.

Login - add to songbook

Rating click stars to rate

Layout
Accuracy

SHARE PAGE  




You need to log in to post comments