Guitar Tabs, Chords and Lyrics


Nanana  Kelly Family

||------------0--------|-----------3--------|-----------2--------|-----------0---------||


||---------0-----0-----|--------3-----3-----|--------3-----3-----|--------1-----1------||


||*-----0-----------0--|-----0-----------0--|-----2-----------2--|-----0-----------0--*||

||*--------------------|--------------------|--0-----------------|--------------------*||
||---------------------|--------------------|--------------------|--3------------------||
||---0-----------------|--3-----------------|--------------------|---------------------||
In a [E-]place where hell is [G]around the corner
I [D]touched her hand it was [C]baby sweet
She [E-]kissed me there I could [G]feel this song
Going [D]down my throat, she was [C]singing to me
Chorus:
[E-]Na na na, na na [G]na na na
Na na [D]na na na, na na [C]na na na
[E-]Na na na, na na [G]na na na
Na na [D]na na na, na na [C]na na na

My [C]Daddy said if you wanna live
you [G]better not touch this is [D]not a toy
The [C]truth is boy I'm a bloody fool
I [G]left the one that I [D]loved behind

Chorus: (w/accords)
Na na na, na na na na na
Na na na na na, na na na na na
Na na na, na na na na na
Na na na na na, na na na na na

[F]Tell me what it is that brings me back to [C]you
[A#]Tell me what it is I [F]can't stop loving [C]you
[F]Tell me what it is that brings me back to [C]you
[A#]Tell me what it is I [F]can't stop loving [C]you

Guitar Solo (w/wah wah pedal): (w/accords: E- G D C 2x)

||------------------|-----------------------|-----------------------------------|
||------------------|-----------------------|-----------------------------------|
||*-----------------|-----0-----0-----0-----|--0h2--2--2--2/4--2p0--0-----------|
||*--0h2p0h2p0h2p0--|--2-----2-----2-----2--|--------------------------2p0h2p0--|
||------------------|-----------------------|-----------------------------------|
||------------------|-----------------------|-----------------------------------|
|------------------|-----3-----3-----3-----|--3/5--5--5--5/7--5\3--3---||
|--3h5--3h5p3h5p3--|--5-----5-----5-----5--|---------------------------||
|------------------|-----------------------|--------------------------*||
|------------------|-----------------------|--------------------------*||
|------------------|-----------------------|---------------------------||
|------------------|-----------------------|---------------------------||


(Play intro)

(w/intro 2x)
So take me back to the land of yours
Where the black swan loves the one I lost
My generation sings with the radio on
The melody of the human doll

Chorus: (w/intro 2x and w/accords the rest of the song)
Na na na, na na na na na
Na na na na na, na na na na na
Na na na, na na na na na
Na na na na na, na na na na na

Important: The song above is NOT stored on the Chordie server. The original song is hosted at www.guitaretab.com. Chordie works as a search engine and provides on-the-fly formatting. Chordie does not index songs against artists'/composers' will. To remove this song please click here.

Text color:
Chord color:
Chord grids: 
Font size:    
Page size: 

A# C D F G
variations - click chord images

Login - add to songbook

Transpose chords

Tuning

Rating click stars to rate

Layout
Accuracy

SHARE PAGE  




You need to log in to post comments