Guitar Tabs, Chords and Lyrics


About Golden Years  Kent

[Eb]  Sometimes it's h[Ebsus2]ard to make those n[Ebsus4]oises disapp[Eb]ear
[Fm11]  Inside my head, behind my [Bb7sus4]eyes, between my ears
[Eb]  You try to t[Ebsus2]ell me it's del[Ebm-5]usion and plai[Eb]n fear
[Fm11]  I close my eyes and just pret[Bb7sus4]end I didn't hear

  And I[Fm11]  try
  Yes I[Abmaj7]  try
  And I tr[Eb]y so h[Cm7]ard
  T[Bb7sus4]ime goes[Fm11] by
  Yes it[Abmaj7]  flies when you try to catch a star

|Eb Ebm-5 |Eb |

  I h[Eb]ate it when I'm s[Ebsus2]ober and I l[Ebsus4]ove it when I'm dr[Eb]unk
  [Fm11]Everything is deadly, you get c[Bb7sus4]ancer in the sun
[Eb]  I hear his v[Ebsus2]oice and it is c[Ebm-5]igarettes and [Eb]  tears
[Fm11]  He is the thin, white duke singing[Bb7sus4]   about golden years

  And I[Fm11]  try
  Yes I[Abmaj7]  try
  And I tr[Eb]y so h[Cm7]ard
  T[Bb7sus4]ime goes[Fm11] by
  Yes it[Abmaj7]  flies when you try to catch a star
|Eb Ebm-5 |Eb |

Tack


Kommentar: Låten bör egentligen spelas som tabulaturen nedan.

----------------------------------------------------------------------

Alternativ ackordvända, ett halvt tonsteg lägre = lättare att spela:

Intro: |D Dm-5 |D |Em7 |Dm-5 D |

Vers: |D Dsus2 |Dsus4 D |Em7 |A7sus4 |
|D Dsus2 |Dm-5 D |Em7 |A7sus4 |

Refräng: |Em7 |Gmaj7 |D |Bm7 A7sus4|
|Em7 |Gmaj7 |

Dm-5 = xx0131, Em7 = 022030, Dsus2 = xx0230, Dsus4 = xx0233
A7sus4 = x02030, Gmaj7 = 320002, Bm7 = x24232
----------------------------------------------------------------------


Tabulatur:

Stäm ned låga E-strängen till D och sätt capo på band 6.

I tabulaturen räknar jag banden från capon, dvs. band 2 i tabulaturen
motsvarar band 8 på gitarrhalsen.

Intro:
e --0----0----0----0----0----0-----0-----0-------|
B --2----2----1---------2----2-----2-----2-------|
G --2----2----2---------2----2-----2-----2-------|
D --2----2----1---------2----2-----2-----2-------|
A --0----0----0---------0----0--0-----0-----0----|
D -----------------------------------------------|
e -----------0----0-----0----0----0---0---0------|
B -----------3----3-----1----1----2---2---2------|
G -----------2----2-----2----2----2---2---2------|
D ---------0------------0----1----2---2---2------|
A --0-h-2------------2--2----0-------------------|
D -----------------------------------------------|


Vers:
e --0-----0-----0-----0----0-----0-----0----|
B --2-----2-----0-----0----3-----3-----2----|
G --2-----2-----2-----2----2-----2-----2----|
D --2-----2-----2-----2----2-----2-----2----|
A --0--0-----0--0--0----0--0--0-----0-------|
D ------------------------------------------|
e -----------0----0-----0-----0----0----0----0----0----|
B -----------3----3-----3-----3----0----0----0----0----|
G -----------2----2-----2-----2----2----2----2----2----|
D ---------0-----------------------0----0----0----0----|
A --0-h-2------------2-----2-------2----2----2----2----|
D ---------------------------------2----2----2----2----|
e --0-----0-----0-----0-----0-----0-----0-----0--------|
B --2-----2-----0-----0-----1-----1-----2-----2--------|
G --2-----2-----2-----2-----2-----2-----2-----2--------|
D --2-----2-----2-----2-----1-----1-----2-----2--------|
A --0--0-----0--0--0-----0--0--0-----0--0--0-----0-----|
D -----------------------------------------------------|
e --0-----0-----0-----0--0----0----0----0----0----|
B --3-----3-----3-----3--2----0----0----0----0----|
G --2-----2-----2-----2--2----2----2----2----2----|
D --0-----0-----0-----0--0----0----0----0----0----|
A --2--2-----2-----2-----2----2----2----2----2----|
D ----------------------------2----2----2----2----|


Refräng:
e --0-----0-----0-----0-----0----0-------0------0---|
B --3-----3-----3-----3-----2----2---0h2----0h2-----|
G --2-----2-----2-----2-----2----2---2------2-------|
D --0-----0-----0-----0-----4----4---4------4-------|
A --2--2-----2-----2-----2--4----4------------------|
D --------------------------0----0------------------|
e --0----0-----0----0--0--0----0----0----0----|
B --2----2--2--2----2--2--2----2----2----0----|
G --2----2--2--2----2--2--2----2----2----2----|
D --2----2--1--2----2--2--4----4----4----2----|
A --0----0-----0----0--0--0----0----0----0----|
D -------------2----2--3--4----4----4----2----|
e --0-----0-----0-----0---------0------|
B --3-----3-----3-----3-----0h2--------|
G --2-----2-----2-----2-----2----------|
D --0-----0-----0-----0-----4----------|
A --2--2-----2-----2-----2--4----------|
D --------------------------0----------|


Mellanspel:
e --0-----0-----0-----0-----0-----0-----0-----0-----|
B --2-----2-----1-----1-----2-----2-----2-----2-----|
G --2-----2-----2-----2-----2-----2-----2-----2-----|
D --2-----2-----1-----1-----2-----2-----2-----2-----|
A --0--0-----0-----0-----0-----0-----0-----0-----0--|
D --------------------------------------------------|				


Important: The song above is NOT stored on the Chordie server. The original song is hosted at www.guitaretab.com. Chordie works as a search engine and provides on-the-fly formatting. Chordie does not index songs against artists'/composers' will. To remove this song please click here.

Text color:
Chord color:
Chord grids: 
Font size:    
Page size: 

Abmaj7 Bb7sus4 Cm7 Eb Ebsus2 Fm11
variations - click chord images

Login - add to songbook

Transpose chords

Tuning

Rating click stars to rate

Layout
Accuracy

SHARE PAGE  




You need to log in to post comments