Guitar Tabs, Chords and Lyrics


Gang Bang Suicide   Kevin Drew



One of my favorite songs from the new album. I don't think these chords actually
exist, but I think they sound just like them.



Guitar 1. Main Strumming Pattern. Reapet each chord as needed.

E|--------------------------|
B|-----------3--------3-----|
G|--9--------2--------4-----|
D|--0--------0--------0-----|
A|--x-----------------------|
E|--8-----------------3-----|


Vibe part

E|-------------------------------------------------|
B|-------------------------------------------------|
G|-------------------------2~----4~----2~----4~----|
D|-0~----2~----0~----0~----------------------------|
A|-------------------------------------------------|
E|-------------------------------------------------|


Guitar 2 (4:27) Right before, "You hate it all in you, you hate it all in you"

E|------------------------|
B|-3/5~~------------------|
G|-----------2~~----0~~---|
D|------------------------|
A|------------------------|
E|------------------------|


Play that once, and from then on play

E|-5-7~~------------------|
B|-3/5~~-----5~~----------|
G|-----------2~~----4~~---|
D|------------------5~~---|
A|------------------------|
E|------------------------|



Important: The song above is NOT stored on the Chordie server. The original song is hosted at www.guitaretab.com. Chordie works as a search engine and provides on-the-fly formatting. Chordie does not index songs against artists'/composers' will. To remove this song please click here.

This song is displayed as text-only. Transposing and tuning is only available for chordpro-songs.

Login - add to songbook

Rating click stars to rate

Layout
Accuracy

SHARE PAGE  




You need to log in to post comments